Lucky Boy - verzia 2 (z filmu Samotáři)

Filmová hudba, pohádky

H  F#           Asmi  
Hello Lucky boy How
H             F#                Asmi 
you do today. Are you comin’ out ?

Posledni Ami se meni:

E|-0--0-0-0-0-0-
B|-1--1-3-1-0-1-
G|-2--2-2-2-2-2-
D|-2--2-2-2-2-2-
A|-0--0-0-0-0-0-
E|-0--0-0-0-0-0-

Takhle je to jen poprve. Potom se tysamy akordy meni trochu jinak - to zvladnete :)
To se deje v prubehu cely pisne krome:

Stredni cast:

E|-1--1-1------1------1--1-1---0---------   POZOR!!
B|---3-3---3------3-------3----1-0-------     ten prvni ton se hraje jenom
G|----------2------2-----------2---0--2--     jako prechod. Zacatek taktu je
E|-----------------------------2-------2-     az na druhym tonu (B3).
B|-----------------------------0---------     Jinak vam to rytmicky nevyjde.
G|-----------------------------0---------
   so please . .

Prechod:

E|-------
B|-------
G|-------
D|-------
A|-0-2-3-
E|-------

+ Znovu str.cast
potom uz bez prechodu zase zacatek.


Tabbed by Zlucoblij (zlucoblij@punkass.com) s mensi pomoci AP Guitar Tuneru  1.2 ;)
Tiskni text z www.akordytexty.cz