Bordel - taby + akordy

Konflikt


e---------------------------------------------------
b---------------------------------------------------
g-------------------------------------------------2-
d-------------------------------------------------2-
a-0-0-2-3-5-3-2-0-----2-3-----2-3-0-0-2-3-5-3-2-0-2-
e-----------------1-1-----3-3-----------------------

e--------------------------------------------------------------
b--------------------------------------------------------------
g-5--2----------------------------------------------------5--7-
d-5--2----------------------------------------------------5--7-
a-3--0--0-0-2-3-5-3-2-0-----2-3-----2-3-0-0-2-3-5-3-2-0-3-3--5-
e-----------------------1-1-----3-3----------------------------


C5                          
Všade kam sa pozrieš špina
C5                      
Neporiadok bordel snáď
C5           A5        C5   
To je bordel bordel bordel

REF:

D5            A5          G5  
Je to jedno je to s vami zlé


1.sólo:

e-----10-7---------------------10-7--------------------------------------10-7-
b----------10-8-8-8-8-8-10----------10-8-8-8-8-7---7-7-7-8-10-7-7-7-8-10------
g-7-7----------------------7-7-------------------7----------------------------
d-----------------------------------------------------------------------------
a-----------------------------------------------------------------------------
e-----------------------------------------------------------------------------

e-------------------------------------------------------
b-10-8-7--7-7-7-8-10-7-7-7-8-10-------------5--5--5-5-5-
g-------------------------------5--5--7--5--5--5--5-5-5-
d-------------------------------------------3--3--3-3-3-
a-------------------------------------------------------
e-------------------------------------------------------

2.sólo:

e-------------------------------------------------------------------------------------
b---------7-------8-8--7-----7-----------------------------------10-8-7--------7------
g-7--7--9---9--7----------9-----9--7--7-7-7-9--7--------------7---------7--7-9----9-7-
d-------------------------------------------------9--7--7--9--------------------------
a-------------------------------------------------------------------------------------
e-------------------------------------------------------------------------------------

e----------------
b----------7-----
g------7-9---9-7-
d-9--7-----------

Tiskni text z www.akordytexty.cz