Aneurysm

Nirvana

( drzte my palce, jeden z mojich prvych tabulatorov )

 
                                                   2#
e------------------------------------
h------------------------------------
g---------------5--------4--------2--
d-----4-------5---5----4---4----2---2
a---4---4---3--------2--------0------
e-2----------------------------------

e-----------------------------------
h-----------------------------------
g-1-1-1-1-2-2-2-2-3-3-3-3-4-4-4-4-5-........az po 12(?)
d-----------------------------------
a-----------------------------------
e-----------------------------------
 
e-----------------------------------     8#
h-----------------------------------
g-----------5-5-5-5-4-4-4-4-2-2-2-2-
d-4----4-4--3-3-5-5-4-4-4-4-2-2-2-2-
a-4----4-4--3-3-3-3-2-2-2-2-0-0-0-0-
e-2----2-2--------------------------

e-----------------------------------
h-----------------------------------
g-1-1-1-1-2-2-2-2-3-3-3-3-4-4-4-4-5-........az po 12(?)
d-----------------------------------
a-----------------------------------
e-----------------------------------

  
e------------------------------
h------------------------------
g------------------------------
d-------------------------------
a-----4----------4----  6# a potom hned  
e-2-2---2----2-2---2--                     
                                         
e---------------------------------       
h---------------------------------         
g----------------------------------       
d-7-7-7-7-7-7-7-7-7-7-7-7-7-7-7-7-7    tieto 2 casti 2# a
a-7-7-7-7-7-7-7-7-7-7-7-7-7-7-7-7-7    potom zacina aj   
e-5-5-5-5-5-5-5-5-5-5-5-5-5-5-5-5-5    spev 

verse
e------------------------------
h------------------------------
g------------------------------
d-------------------------------
a-----4----------4----    
e-2-2---2----2-2---2--                     

    Come on over and do the twist...
e---------------------------------       
h---------------------------------         
g----------------------------------       
d-7-7-7-7-7-7-7-7-7-7-7-7-7-7-7-7-7    
a-7-7-7-7-7-7-7-7-7-7-7-7-7-7-7-7-7       
e-5-5-5-5-5-5-5-5-5-5-5-5-5-5-5-5-5    
  Aahhhh........................

ref.

e---------------------------------
h---------------------------------
g----------2-2-2-2--4-4--2-2-2-2--
d-4---4-4--2-2-2-2--4-4--2-2-2-2--        8#
a-4---4-4--0-0-0-0--2-2--0-0-0-0--
e-2---2-2-------------------------
                     Beat me out of me! ....


opat verse a ref.


potom


e-----------------------------------
h-----------------------------------
g-1-1-1-1-2-2-2-2-3-3-3-3-4-4-4-4-5-........az po 12(?)
d-----------------------------------
a-----------------------------------
e-----------------------------------


e-------------------------------------    
h-------------------------------------
g-----------5-5-5-5--4-4-4-4--2-2-2-2-   10#
d--4-4-4-4--5-5-5-5--4-4-4-4--2-2-2-2-
a--4-4-4-4--3-3-3-3--2-2-2-2--0-0-0-0-
e--2-2-2-2----------------------------

             She gives a pauper stray to my heart!

e-----------------------------------
h-----------------------------------
g-1-1-1-1-2-2-2-2-3-3-3-3-4-4-4-4-5-........az po 12(?)
d-----------------------------------
a-----------------------------------
e-----------------------------------

               THE END
 
slova

Come on over do the twist   Aahhh
Over do it have a fit       Aahhh
Love you so much makes me sick Aahhh
Come on over do the twist   Aahhh

Beat me out of me!  

Come on over do the twist   Aahhh
Over do it have a fit       Aahhh
Come on over shoot the shit Aahhh
Come on over do the twist   Aahhh

Beat me out of me!  

She gives a pauper stray to my heart!


P.S ak sa vam nieco nezda (najma v texte,robil som to len z pocutia) dajte o sebe vediet.

Peace with you all!


Tiskni text z www.akordytexty.cz