Ak nie si moja

Vašo Patejdl

  (Emi),(Hmi),(Ami7),(D),(G),(Emi/C),(C/E)
e---0------2-----0-----2---3-----0------0--|
H---0------3-----1-----3---3-----0------1--|
G---0------4-----0-----2---0-----0------0--|
D---2------4-----2-----0---0-----2------2--|
A---2------2-----0-----0---2-----3------3--|
E---0------2-----0-----0---3-----0------0--|

*Fill(vložka): e---0--3-3--0-|

Intro:
e----------|---------|---5----------------|---------|---------|---5---------------|--0--3-3--0-|
H--0-5-7-8-|-0-5-7-8-|-8---8-7--7-7--5--7-|-0-5-7-8-|-0-5-7-8-|-8---8-7---5--754--|------------|




    Emi        Hmi                    Ami7               

Ak nie si moja, tak potom neviem čia si. + *Fill Emi Hmi Ami7 Máš detskú tvár a hrozne dobré vlasy. + *Fill Emi D G Emi/C HmiDEmi Za tisíc dotykov postačí jediný, óóó Emi D G Emi/C HmiDAmi7 Skúsme byť obaja vinní aj bez viny óóó + *Fill 2. Ak nie si moja, potom neviem čia si Máš detskú tvár a hrozne dobré vlasy Cestičkou vo vlasoch prídem ti v ústrety Pesnička o nás dvoch už nie je pre deti Emi C/E D H7 ®: Všetci nám môžu závidieť. Vravia, že lásky dávno niet. Emi C/E D Ami7 Všetci nám môžu závidieť, že Ťa mám ráaád. Emi C/E D Ami7 Zostaňme takto chvíľu stáť. Na všetko krásne máme čas. Emi C/E D Ami7 Emi Viem, že si práve práve Tá, ktorú mám ráaád. + *Fill 1., ®:, modulácia, ®:

Tiskni text z www.akordytexty.cz