Angelo mutuje

Tři sestry

Riff A:
   D                 Bb           D                Bb   A         
E |------------------------------|------------------------------|
H |------10----8-7---------------|------10----8-7---------------|
G |7---------------9-------------|7---------------9-----9-------|
D |------------------8~~~~~~~~~~~|------------------8-----7~~~~~|
A |------------------------------|------------------------------|
E |------------------------------|------------------------------|

   D                 Bb           D                Bb   A         
E |------------------------------|------------------------------|
H |------10----8-7---------------|------10----8-7---------------|
G |7---------------9-------------|7---------------9-------------|
D |------------------8~~~~~~~~~~~|------------------8~~~~~~~~~~~|
A |------------------------------|------------------------------|
E |------------------------------|------------------------------|


D                B       D       
V Kolíně na lodi zdvíhaj kotvy 
              B           A        
a starý Kelly pije irskou whisky,
D               B      G               
zrzavý vlasy se míhaj, jak ve zmatku 
      A                   
běhaj všichni sem a tam,
D             B       
Angelo jediný zívá, 
D                  B           A       
vždyť je to dítě a nemá z toho rozum,
D                    B       
včera ho slyšeli jak zpívá 
G                 A               
hlubokým hlasem a puberta je tu.

G      B        
Angelo mutuje 
  D                                
a zničil celou zpívající rodinu, 
G        B         
do Irska putuje, 
D                   
zpátky do Dublinu.


Riff A


Stará loď neklidně se houpá a táta Kelly v kajutě se zavřel,
nedávno ještě mohl doufat, že finanční triky zalepí en endžl.
Tak teda zase domu táhnou, ještě že maj trochu zlata dole v pytli,
brňáky na ně nedosáhnou, zase budou živí z bramborů a žita.

Angelo mutuje a zničil celou zpívající rodinu, 
do Irska putuje, zpátky do Dublinu.


Mezihra:
   A            G            F#          E  
E |-------------------------|------------------------|
H |10~~~~~~~~~~~8~~~~~~~~~~~|7~~~~~~~~~~~5~~~~~~~~~~~|
G |-------------------------|------------------------|
D |-------------------------|------------------------|
A |-------------------------|------------------------|
E |-------------------------|------------------------|

   D           C#           H
E |------------------------|------------------------|
H |------------------------|------------------------|
G |7~~~~~~~~~~~6~~~~~~~~~~~|4~~~~~~~~~~~~~~~~~~~~~~~|
D |------------------------|------------------------|
A |------------------------|------------------------|
E |------------------------|------------------------|

Riff A

Angelo mutuje a zničil celou zpívající rodinu, 
do Irska putuje, zpátky do Dublinu.
Tiskni text z www.akordytexty.cz