Bohužel

Divokej Bill

e-----5-------4-------2-----------

H---5---5---5---5---3---3-----5---

G-6-------4-------2---------4---4-

D-------------------------6-------



e-----2---------------------------

H---3---3-----5-------3-------2---

G-2---------4---4---2---2---2---2-

D---------6-------4-------2-------




Jsou prokletý upsali duši ďáblu 
lejstra krvavý dokázat to můžou 
rej jejich těl ochabnul a slábnul 
ale už si bohužel nepomůžou 

D         A       E     A
Ale už si bohužel nepomůžou 

A         E           D           A
Zatracená práce usmál se a krátce řek' 
     D      A             E      A
kosu mám to proto že jsem řezník sám 
A             E        D           A
chtěl mít svý jistý já svědomí mám čistý 
   D               A            E              A
já jedinou jistotu mám totiž že ke dnu nepůjdu sám.

Ale už si bohužel nepomůžou 

Převozník na řece to se přece může stát 
kolikrát je člověk pomalej a nechce se mu vstát 
pak potřebuješ přes vodu na cestě daleký 
usneš chlapík vyskočí a jsi tu na věky 

Ale už si bohužel nepomůžou
Tiskni text z www.akordytexty.cz