Marijuana (alebo Moist Vagina)

Nirvana

samozrejme od Cobaina


  E       F#         -3# sa to opakuje     
E----------------
H----------------
G-1-1-1-1-3-3-3-3
D-2-2-2-2-4-4-4-4
A-2-2-2-2-4-4-4-4
E-0-0-0-0-2-2-2-2

  A           C               -zaciatok refrenu
E-0-0-0-0-0-0-0-0-0-0-0-0-0- 
H-2-2-2-2-2-2-1-1-1-1-1-1-1- 
G-2-2-2-2-2-2-0-0-0-0-0-0-0- 
D-2-2-2-2-2-2-2-2-2-2-2-2-2- 
A-0-0-0-0-0-0-3-3-3-3-3-3-3- 
E--------------------------- 


  E       F#         -3# po sebe zahrat
E----------------
H----------------
G-1-1-1-1-3-3-3-3
D-2-2-2-2-4-4-4-4
A-2-2-2-2-4-4-4-4
E-0-0-0-0-2-2-2-2


solo a slova bohuzial neviem, ale dajte my cas chvilu sa pohram s giarou a mozno ma to raz napadne.


Tiskni text z www.akordytexty.cz