Chránený zákonom - taby

Konflikt


Intro(basa):

2x
g---------------------------------
d---------------------------------
a-4-4-4-4-----7-6-2-2-2-2-------2-
e---------5-5-------------2-2-4---

Guitar:

2x
e----------------------------
b----------------------------
g-6----6-----9--4----4-4-4---
d-6----6-6-6-9--4----4-4-4-6-
a-4----4-6-6-7--2----2-4-4-6-
e--------5-5-----------2-2-4-

Solo:
e-----------7----------------------------------------
b-------7-9---10-9-7-9------------7-9-7-7-7---7-9----
g-6-8-9----------------6-6--6-8-9-----------9-----6--
d----------------------------------------------------
a----------------------------------------------------
e----------------------------------------------------

e-----------7-------------------------12-11-9-7-9-11-9-
b-------7-9---10-9-7-9------------7-9------------------
g-6-8-9----------------6-6--6-8-9----------------------
d------------------------------------------------------
a------------------------------------------------------
e------------------------------------------------------

e-9------9----9----9---I
b-9----7---7--9--7---7-I
g----------------------I
d----------------------I
a----------------------I
e----------------------I


Tiskni text z www.akordytexty.cz