Název skladby
    
Interpret, skladatel
    
Část textu písně
    

Texty písní:
A B C D E F G H
I J K L M N O P
Q R S T U V W X
Y Z ...

Interpreti:
A B C D E F G H
I J K L M N O P
Q R S T U V W X
Y Z ...



Konflikt [-] Transpozice [+]   Tisk textu     


Anti Nazi - taby

Konflikt


Intro:
e----------------------------------------------------
b--------------------------------8-8-8-8-10-8--------
g-0-9-7-5-0--0-9-7-5------10-9-7--------------7-8-9--
d--------------------7--7----------------------------
a----------------------------------------------------
e----------------------------------------------------

e-----------------------------------------------------I
b---------------------------------8-8-8-8-10-8--------I
g-0-9-7-5-0--0-9-7-5-------10-9-7--------------10-9-5-I
d---------------------7--7----------------------------I
a-----------------------------------------------------I
e-----------------------------------------------------I

Guitar:
2x
e---------------------------------
b---------------------------------
g-4-5-5-5-4-5-5-5-----------------
d-4-5-5-5-4-5-5-5-3-3-3-3-5-5-5-5-
a-2-3-3-3-2-3-3-3-3-3-3-3-5-5-5-5-
e-----------------1-1-1-1-3-3-3-3-

e---------------------------------
b---------------------------------
g---------------------------------
d-3-3-3-3-5-5-5-5-----------------
a-3-3-3-3-5-5-5-5-----------------
e-1-1-1-1-3-3-3-3-----------------

e---------------------------------
b---------------------------------
g-5-5-5-5-4-5--5-4-5-4-5-4-5------
d-5-5-5-5-4-5--5-4-5-4-5-4-5------
a-3-3-3-3-2-3--3-2-3-2-3-2-3------
e---------------------------------


     C#5                     F#5    
Vianoce sú zas, vie to každý fas,
             As5                 C#5    
že tento deň oznamuje starý dedo Mráz



Solo: Prvé riadky Intra +

e-3-3-3-3-5-3-0---------------------------------
b---------------3-1-1-1-3-1---3-3-3-3-4-3-1---1-
g---------------------------2---------------2---
d-----------------------------------------------
a-----------------------------------------------
e-----------------------------------------------



Words:

Vianoce sú zas, vie to každý fas,
že tento deň oznamuje starý dedo Mráz.
V Rigu sa ožral, dobre sa ogrcal,
ale ešte predtým tento odkaz napísal:
Hákový kríž na bunde, nech mi povie prečo,
provokuje okolie, tak sa pýtam: Na čo?
Číslo kríža narástlo, vláda môže za to,
lebo s fízlami je v jednom vreci, spravme niečo preto.

Nedajme si osud do rúk fašistom,
aby táto krajina nepatrila vrahom,
aby ľudia bo svete zas nezačali vojny viesť,
lebo tieto pijavice chcú mier zo sveta odniesť.

Buchenwald...Macht allem Faschist warm

Keď si správny anarchista, skoč mu na hlavu,
nech si ten chudák, nájde inú zábavu.
Hacken Kreuz je parazit, nedaj mu šancu žiť,
nech sa túži napraviť a človekom už byť.

Buchenwald...Macht allem Faschist warm!