Název skladby
    
Interpret, skladatel
    
Část textu písně
    

Texty písní:
A B C D E F G H
I J K L M N O P
Q R S T U V W X
Y Z ...

Interpreti:
A B C D E F G H
I J K L M N O P
Q R S T U V W X
Y Z ...



Sex Pistols [-] Transpozice [+]   Tisk textu     


Anarchy in the U.K.

Sex Pistols

        AsF#FEsC# 
intro:      

As 


C#                  F#F
I am an anti-christ 
I am an anarchist
Don’t know what I want but I know how to get it
C# 

I wanna destroy the passerby

     As      F# F  Es  C#, F#, F, C#
ref: I wanna be anarchy

As 



Anarchy for the UK
It’s coming sometime maybe
I give a wrong time stop a traffic line
You’re future dream is a shopping scheme

ref:

       EsFEsAs 
solo:     


there are many ways to get what you want
I use the best I use the rest
I use the enemy
I use anarchy

ref:

solo 2: 
E|-----12-----------------|-----14-------------------|
B|-/13----13----------13/-|-/15----15------15----11/-|
G|-----------14~------14/-|-/16-------16~--16-16-12/-|
D|------------------------|--------------------------|
A|------------------------|--------------------------|
E|------------------------|--------------------------|


E|-----12-----------------|-----14-------------------|
B|-/13----13-------13-----|--------15------------11/-|
G|-/14-------14~---14-14/-|-/16-------16~--1610-12/-|
D|------------------------|--------------------------|
A|------------------------|--------------------------|
E|------------------------|--------------------------|


E|-----12-----------------|-----14-------------------|
B|-/13----13-------13-13/-|-/15----15------15---11/-|
G|-/14-------14~---14-14/-|-/16-------16~--16---12/-|
D|------------------------|--------------------------|
A|------------------------|--------------------------|
E|------------------------|--------------------------|


E|-----12--------------------|-----------------------|
B|-/13----13-------13-13----|----8-8~--/13----13-13-|
G|-/14-------14~---14-14----|----7-7~------14-14-14-|
D|------------------------7/-|-/9--------------------|
A|---------------------------|-----------------------|
E|---------------------------|-----------------------|


E|------------------------------|-----------------|------------------|
B|-13-15-15-15~-----------------|-----5-3-5-3-----|-/3-----5-5-5-5---|
G|-14-16-16-16~-(16)/19-19-0-4-|-5-7-5-4-5-4-0---|-/4-0---5-5-5-5---|
D|--------------------------0---|---------------0-|------0-----------|
A|------------------------------|-----------------|----------------0-|
E|------------------------------|-----------------|------------------|


Is this the MPLA
or is this the UDA
Is this the IRA
I thought it was the UK

ref:

3x ref:


{nejako sa mi sem to druhe solo nezmestilo :-)}