Název skladby
    
Interpret, skladatel
    
Část textu písně
    

Texty písní:
A B C D E F G H
I J K L M N O P
Q R S T U V W X
Y Z ...

Interpreti:
A B C D E F G H
I J K L M N O P
Q R S T U V W X
Y Z ...



Nirvana [-] Transpozice [+]   Tisk textu     


Asshole - taby

Nirvana


intro:e----------------------/
      h----------------------/
      g----33--------33------/
      d-22---22-0--22---22-0-/
      a----------------------/
      e----------------------/
sloha:e-----------------------------/
      h-----------------------------/
      g------3------------3---------/
      d---2--3--22-0--22--3--22--0--/
      a---2--1--22-0--22--1--22--0--/
      e-----------------------------/

ref:  e---------------------------------------/
      h---------------------------------------/
      g--7-----------3-------------3----------/
      d--7--8--7--2--3--22--0--22--3--22--0---/
      a--5--8--7--2--1--22--0--22--1--22--0---/
      e-----6--5------------------------------/

      e-----------------------------------------/
      h-----------------------------------------/
      g--7--------------3-------------3---------/
      d--7--8--7--5--2--3--22--0--22--3--22--0--/
      a--5--8--7--5--2--1--22--0--22--1--22--0--/
      e-----6--5--3-----------------------------/