Název skladby
    
Interpret, skladatel
    
Část textu písně
    

Texty písní:
A B C D E F G H
I J K L M N O P
Q R S T U V W X
Y Z ...

Interpreti:
A B C D E F G H
I J K L M N O P
Q R S T U V W X
Y Z ...



Iné kafé [-] Transpozice [+]   Tisk textu     


Biely hotel

Iné kafé

Intro:

e----------------------------------------------------------    2X
H----------------------------------------------------------
G-7-5-4---9--9-9-9---------------5--5--5-5-5---------------
D-7-5-4-2-9--9-9-9--5--5-5-5-4-5-5--5--5-5-5--7---7-7------
A-5-3-2-2-7--7-7-7--5--5-5-5-4-5-3--3--3-3-3--7---7-7------
E-------0-----------3--3-3-3-2-3--------------5---5-5------

e----------------
H----------------
G-7-5-4-2~~~~~---
D-7-5-4-2~~~~~---
A-5-3-2-0~~~~~---
E----------------  


Esmi      F#           H    Asmi
Prečo mám zas na daždi stáť 
Esmi    F#        H   Asmi
a čakať ďalší autobus.
Nemal som čas sa ani vyspať,
je to dosť tvrdé na môj vkus.

INTRO

Už som z toho unavený,
silu už mám len na snívanie.
Poučený a vyškolený,
                         H 
čo sa môže na a čo niééé 

           F#         C#     
®: Na plagáte palmový raj,
          Esmi            H     
všetko je fajn, všetko je naj.
         F#          C#     
Už len čakám kedy ma tam,
       H        
rýchlo odvezú.
Už ma víta biely hotel,
kam by som sa takto podel.
Západ slnka si dnes pôjdem 
vychutnať na pláž.

Prechod:

e----------------------------------------
H----------------------------------------
G-0-9-7-4--------------9-9-7-4-----------
D----------7-5--0-2--0----------7-5-9-10-
A----------------------------------------
E----------------------------------------
      

Zo sna ma budí ranný spoj,
je dlhší ako včera.
Otvára dvere, tak sa tlačím,
neviem len tože vlaste za čím 

Ref:
Na plagáte....


Prechod

Sólo:
e---------------------------------------------------
H-----12-8-----------------12-8---------------------
G-9---------7--9-999999-9--------7-9-11-13-15-16----
D---------------------------------------------------
A---------------------------------------------------
E---------------------------------------------------


®: 

Intro