Název skladby
    
Interpret, skladatel
    
Část textu písně
    

Texty písní:
A B C D E F G H
I J K L M N O P
Q R S T U V W X
Y Z ...

Interpreti:
A B C D E F G H
I J K L M N O P
Q R S T U V W X
Y Z ...



Pearl Jam [-] Transpozice [+]   Tisk textu     


Blood

Pearl Jam

G1 (stone) is GGDGBD
G2 (mike) is standard

-|---------------------------|---------------------------|--------------------
-|---------------------------|---------------------------|--------------------
-|--5----3----0---5---3---0--|--5----3----0---5---3---0--|--------------------
-|--5----3----0---5---3---0--|--5----3----0---5---3---0--|--------------------
-|--5----3----0---5---3---0--|--5----3----0---5---3---0--|--------------------
-|--5----3----0---5---3---0--|--5----3----0---5---3---0--|--------------------
 G1                                                                           

-|---------------------------|---------------------------|--------------------
-|---------------------------|---------------------------|--------------------
-|--5----3----0---5---3---0--|--5----3----0---5---3---0--|--------------------
-|--5----3----0---5---3---0--|--5----3----0---5---3---0--|--------------------
-|--5----3----0---5---3---0--|--5----3----0---5---3---0--|--------------------
-|--5----3----0---5---3---0--|--5----3----0---5---3---0--|--------------------
 G1                                                                           

-|---------------------------|---------------------------|--------------------
-|---------------------------|---------------------------|--------------------
-|--5----3----0---5---3---0--|--5----3----0---5---3---0--|--------------------
-|--5----3----0---5---3---0--|--5----3----0---5---3---0--|--------------------
-|--5----3----0---5---3---0--|--5----3----0---5---3---0--|--------------------
-|--5----3----0---5---3---0--|--5----3----0---5---3---0--|--------------------
 G1                                                                           

-|---------------------------|---------------------------|--------------------
-|-17---15-------17--15------|-17---15-------17--15------|--------------------
-|-17---15-------17--15------|-17---15-------17--15------|--------------------
-|-----------17----------17--|-----------17----------17--|--------------------
-|---------------------------|---------------------------|--------------------
-|---------------------------|---------------------------|--------------------
 G2                                                                           

-|---------------------------|---------------------------|--------------------
-|---------------------------|---------------------------|--------------------
-|--5----3----0---5---3---0--|--5----3----0---5---3---0--|--------------------
-|--5----3----0---5---3---0--|--5----3----0---5---3---0--|--------------------
-|--5----3----0---5---3---0--|--5----3----0---5---3---0--|--------------------
-|--5----3----0---5---3---0--|--5----3----0---5---3---0--|--------------------
 G1                                                                           

-|---------------------------|---------------------------|--------------------
-|-17---15-------17--15------|-17---15-------17--15------|--------------------
-|-17---15-------17--15------|-17---15-------17--15------|--------------------
-|-----------17----------17--|-----------17----------17--|--------------------
-|---------------------------|---------------------------|--------------------
-|---------------------------|---------------------------|--------------------
 G2                                                                           

-|----------------------------------------------------------------------------
-|----------------------------------------------------------------------------
-|---------7------------------------------------------------------------------
-|-3/5-5-5---5-3-5-3----------------------------------------------------------
-|-------------------3--------------------------------------------------------
-|----------------------------------------------------------------------------
 G1                                                                           

-|----------------------------------|-------------------------|---------------
-|----------------------------------|-------------------------|---------------
-|-3p0-------0----------------------|-3p0-------0-------------|---------------
-|-----3-0h3---0-----------3h5-5-5--|-----3-0h3---0-----------|---------------
-|---------------3b4r3-0-0----------|---------------3b4r3-0-0-|---------------
-|----------------------------------|-------------------------|---------------
 Verse, G1                2x simile                                           

-|-----------------------------------------|-----------------|----------|-----
-|-x-x-x-x-x-8-8-8-x-x-x-x-x-x-x-x-x-x-x-x-|-x-x-x-x-x-x-x-x-|-x-x-x-x--|-----
-|-x-x-x-x-x-7-7-7-x-x-x-x-x-x-x-x-x-x-x-x-|-x-x-x-x-x-x-x-x-|-x-x-x-x--|-----
-|-----------------------------------------|-----------------|----------|-----
-|-----------------------------------------|-----------------|----------|-----
-|-----------------------------------------|-----------------|----------|-----
 Verse, G2(w/ wah)                                         2x                 

-|-------------------|-------------------|------------------------------------
-|-------------------|-5--3-----5--3-----|------------------------------------
-|-5--3--0--5--3--0--|-5--3--0--5--3--0--|------------------------------------
-|-5--3--0--5--3--0--|-5--3--0--5--3--0--|------------------------------------
-|-5--3--0--5--3--0--|-------------------|------------------------------------
-|-5--3--0--5--3--0--|-------------------|------------------------------------
 G1                2x G2               2x                                     

-|----------------------------------|--------------------------|--------------
-|----------------------------------|--------------------------|--------------
-|--3p0-------0---------------------|--3p0-------0-------------|--------------
-|------3-0h3---0-----------3h5-5-5-|------3-0h3---0-----------|--------------
-|----------------3b4r3-0-0---------|----------------3b4r3-0-0-|--------------
-|----------------------------------|--------------------------|--------------
 Verse, G1                 2x simile                                          

-|--------------------------|-x-x-x-x-x-x-x-x--|------------------------------
-|-x-x-x-x-8-8-8-x-x-x-x-x--|-x-x-x-x-x-x-x-x--|------------------------------
-|-x-x-x-x-7-7-7-x-x-x-x-x--|-x-x-x-x-x-x-x-x--|------------------------------
-|-x-x-x-x-0-0-0-x-x-x-x-x--|------------------|------------------------------
-|--------------------------|------------------|------------------------------
-|--------------------------|------------------|------------------------------
 Verse, G2 (w/ wah)                       etc...                              

-|-------------------|-------------------|------------------------------------
-|-------------------|-5--3-----5--3-----|------------------------------------
-|-5--3--0--5--3--0--|-5--3--0--5--3--0--|------------------------------------
-|-5--3--0--5--3--0--|-5--3--0--5--3--0--|------------------------------------
-|-5--3--0--5--3--0--|-------------------|------------------------------------
-|-5--3--0--5--3--0--|-------------------|------------------------------------
 G1               4x  G2              4x                                      

-|---------------------------|---------------------------|-x-x-x-x-x-x-x-x--|-
-|-x-x-x-x-x-x-x-x-x-x-x-x---|-x-x-x-x-x-x-x-x-x-x-x-x-8-|-x-x-x-x-x-x-x-x--|-
-|-x-x-x-x-x-x-x-x-x-x-x-x-7-|-x-x-x-x-x-x-x-x-x-x-x-x-7-|-x-x-x-x-x-x-x-x--|-
-|-------------------------0-|-------------------------0-|------------------|-
-|---------------------------|---------------------------|------------------|-
-|---------------------------|---------------------------|------------------|-
 G2 (w/ wah)                                                            etc.. 

-|--------------|----------------------------------|--------------------------
-|--------------|----------------------------------|--------------------------
-|--------------|--3p0-------0---------------------|--------------------------
-|------3h5-5-5-|------3-0h3---0-----------3h5-5-5-|--------------------------
-|-12----------|----------------3b4r3-0-0---------|--------------------------
-|--------------|----------------------------------|--------------------------
 G1                                        2x simile                          

-|-------------------------|-------------------|-------------------|----------
-|-------------------------|-------------------|-5--3-----5--3-----|----------
-|-------------3p0---------|-5--3--0--5--3--0--|-5--3--0--5--3--0--|----------
-|-3h5-5-5-3p0-----3p0-----|-5--3--0--5--3--0--|-5--3--0--5--3--0--|----------
-|---------------------3p0-|-5--3--0--5--3--0--|-------------------|----------
-|-------------------------|-5--3--0--5--3--0--|-------------------|----------
                            G1               8x G2               8x           

-|------------|-------------------------|-------------------------------------
-|------------|--x-x-x-x-8-8-x-x-x-x-5--|-------------------------------------
-|-0----------|--x-x-x-x-7-7-x-x-x-x-5--|-------------------------------------
-|-0----------|-------------------------|-------------------------------------
-|-0----------|-------------------------|-------------------------------------
-|------------|-------------------------|-------------------------------------
 G1(let ring)  G2                                                             

-|-------------------|-------------------|------------------------------------
-|-------------------|-5--3-----5--3-----|------------------------------------
-|-5--3--0--5--3--0--|-5--3--0--5--3--0--|------------------------------------
-|-5--3--0--5--3--0--|-5--3--0--5--3--0--|------------------------------------
-|-5--3--0--5--3--0--|-------------------|------------------------------------
-|-5--3--0--5--3--0--|-------------------|------------------------------------
 G1               16x G2              12x                                     

-|----------------------------|-----------------------------------------------
-|----------------------------|-----------------------------------------------
-|----------------------------|-----------------------------------------------
-|----------------------------|-----------------------------------------------
-|--5--3--0--5--3--0----------|-----------------------------------------------
-|----------------------------|-----------------------------------------------
 After awhile, G1 plays this   G1-noises, scrapes, wah, etc...                

-|-----------------|--------------------|-------------------|----------|------
-|---------17--15--|--------------------|-------------------|-15------|------
-|---------17--15--|--------------------|-------------------|-15------|------
-|-----------------|--------------------|-------------------|----------|------
-|--5--3-----------|--------------------|--5-5-5-5-5-5-5-5--|-5-------|------
-|-----------------|--------------------|-------------------|----------|------
 G1        G2(repeat as necessary),then  G1(till end)        G2 up top        

-|------------------------------------------------|---------------------------
-|------------------------------------------------|---------------------------
-|-4-4-4-4-x-x-x-x-4h5-5-7p4-5------3-3-5p3-------|---------------------------
-|------------------------------3h5---------5-5--|---------------------------
-|------------------------------------------------|---------------------------
-|------------------------------------------------|---------------------------