Název skladby
    
Interpret, skladatel
    
Část textu písně
    

Texty písní:
A B C D E F G H
I J K L M N O P
Q R S T U V W X
Y Z ...

Interpreti:
A B C D E F G H
I J K L M N O P
Q R S T U V W X
Y Z ...



Lenny Kravitz [-] Transpozice [+]   Tisk textu     


Again

Lenny Kravitz



(Intro)
     A                   F#mi
e----------O---------|---------O---------|
B------O-----Oh2-O---|-----O-----Oh2-O---|
G----2---2---------2-|---2---2---------2-|
D--------------------|-------------------|
A--O-----------------|-------------------|
E--------------------|-2-----------------|

    E                  D
e---------O---------|--------Oh2-O-------|
B-----O-----Oh2-O---|----O-------Oh2-O---|
G---2---2---------2-|--2---2-----------2-|
D-----------------O-|--------------------|
A-------------------|--------------------|
E-O-----------------|--------------------|


(Verse)
   D         E       F#
e----------|---------6---6--| 
B----------|---------X---X--| 
G--2-------|-2h4-----6---6--| 
D--O-------|-2-------4---4--| 
A--O-------|-2-------4---4--| 
E----------|-------------- --|