Název skladby
    
Interpret, skladatel
    
Část textu písně
    

Texty písní:
A B C D E F G H
I J K L M N O P
Q R S T U V W X
Y Z ...

Interpreti:
A B C D E F G H
I J K L M N O P
Q R S T U V W X
Y Z ...



Linkin Park [-] Transpozice [+]   Tisk textu     


Crawling

Linkin Park



Intro

e|---10--7-------------------|
B|---------10--8--7--8-------|
G|-9-------------------------|
D|---------------------------|
A|---------------------------|
E|---------------------------|

Ref.

|---------------------------|
|---------------------------|
|-------7-----------10------|
|-5-----7-----8-----10------|
|-5-----5-----8-----8-------|
|-3-----------6-------------|

"Crawling in my skin........"



Text:

Crawling in my skin
Theese wound they will not heal
Fear is how i fall 
confusing what is real

There’s something inside me that pulls beneath the surface,
consuming confusing 
This lack of self-control I fear is never ending, 
controlling/ I can’t seem

To find myself again 
my walls closing in
(without a sense of confidence and i’m convinced that theres to mutch preasure
to take.)
I’ve felt this way before so insucure!

Crawling in my skin
consuming all I feel
Fear is how i fall 
confusing what is real

Discomfort, Endlessly has pulled itself upon me 
Distracting/Reacting
Against my will I stand beside my own reflection
It’s haunting how I can’t seem...