Název skladby
    
Interpret, skladatel
    
Část textu písně
    

Texty písní:
A B C D E F G H
I J K L M N O P
Q R S T U V W X
Y Z ...

Interpreti:
A B C D E F G H
I J K L M N O P
Q R S T U V W X
Y Z ...



Mike Oldfield [-] Transpozice [+]   Tisk textu     


Moonlight Shadow

Mike Oldfield



  Intro / mute(lightly)
  

  E--------------------------------------------|
  B-----------------9--------------------------|
  G----------9--11-----11--9-------------8-----|
  D-------9-------------------11--9--11--------|
  A---11------------------------------------9--|
  E--------------------------------------------|


  E-----------------------------------------|
  B-----------------------------------------|
  G---------8--9--9--8--8------8--9--11-----|
  D---9h11-----------------11------------9--|
  A-----------------------------------------|
  E-----------------------------------------|


Emi                C            
The last that ever she saw him
D               G     D             
Carried away by a moonlight shadow
Emi             C                 
He passed on worried and warning
D               G     D             
Carried away by a moonlight shadow
G                     D               
Lost in a riddle that Saturday night
Emi C           D           
Far away on the other side

       G                         D                
He was caught in the middle of a desperate fight
        Emi           C          D         
And she couldn’t find how to push through

The trees that whisper in the evening
Carried away by a moonlight shadow
Sing a song of sorrow and grieving
Carried away by a moonlight shadow
All she saw was a silhouette of a gun
Far away on the other side
He was shot six times by a man on the run
And she couldn’t find how to push through

   D               
®: I stay, I pray
    Emi    C      D         
See you in heaven far away
D               
I stay, I pray
    Emi    C      D        
See you in heaven one day


Four a.m. in the morning
Carried away by a moonlight shadow
I watched your vision forming
Carried away by a moonlight shadow
Stars roll slowly in a silvery night
Far away on the other side
Will you come to terms with me this night
But she couldn’t find how to push through
®: 

Far away on the other side

Caught in the middle of a hundred and five
The night was heavy and the air was alive
But she couldn’t find how to push through

Carried away by a moonlight shadow
Carried away by a moonlight shadow
Far away on the other side
But she couldn’t find how to push through

---------------
Poznámka od stranger338: Určite by to lepšie znelo v E-dur, tj: C#mi, A, H, E, atď...