Název skladby
    
Interpret, skladatel
    
Část textu písně
    

Texty písní:
A B C D E F G H
I J K L M N O P
Q R S T U V W X
Y Z ...

Interpreti:
A B C D E F G H
I J K L M N O P
Q R S T U V W X
Y Z ...



Pearl Jam [-] Transpozice [+]   Tisk textu     


W.M.A. - taby

Pearl Jam



-|---------------|------------------------|-----------------------------------
-|---------------|------------------------|-----------------------------------
-|---------------|-5vvvv--5vvvv--5vvvv----|-----------------------------------
-|---------------|------------------------|-----------------------------------
-|---------------|------------------------|-----------------------------------
-|---------------|------------------------|-----------------------------------
 Drum/Bass intro  G2 0:15 (volume swells)                                     

-|-------------------|-----------------------------|--------------------------
-|-------------------|-----------------------------|--------------------------
-|-x-x-x--x-x-x-x----|-----5-----------------------|--------------------------
-|-x-x-x--x-x-x-x----|-5h7---7-5-7--5h7--5h7-------|--------------------------
-|-x-x-x--x-x-x-x----|-----------------------------|--------------------------
-|-------------------|-----------------------------|--------------------------
 Pre-Verse, G2(0:35)  Pre-Verse, Verse, G1(0:45) 20x                          

-|--------7vvvv----5vv-7vv-5vv----|-------------------------------------------
-|-5vvvv--------------------------|-------------------------------------------
-|--------------------------------|-------------------------------------------
-|--------------------------------|-------------------------------------------
-|--------------------------------|-------------------------------------------
-|--------------------------------|-------------------------------------------
 Verse, G2 (1:15)(volume swells)                                              

-|------5--------------|-------------------------|----------------------------
-|------5--------------|-------------------------|----------------------------
-|---------------------|-9---x-/x-------------|----------------------------
-|---------------------|-7---x-/x--x-x--------|----------------------------
-|---------------------|--------------x-x--------|----------------------------
-|---------------------|-------------------------|----------------------------
 Interlude(1:30)G1  8x  G2  noises, scrapes, etc                              

-|-------------------------|------------------------------------------------|-
-|-------------------------|------------------------------------------------|-
-|------5------------------|-------7----------------------------------------|-
-|--5h7---7-5-7--5h7--5h7--|-5h7-----5h7--x-x-x-x-5h7--7--x-x--x--5h7--7--|-
-|-------------------------|------------------------------------------------|-
-|-------------------------|------------------------------------------------|-
 G1 (1:47)             26x  G2(1:47)                                          

-|--------------------5-----15--15-15------------|-15-/------|----------------
-|--7---------------------------------x-x-------|-15-/------|----------------
-|--7---------------------------------x-x--x---|--/--------|----------------
-|--7-----x-x-x-x--------------------------x---|--/--------|----------------
-|--/---------------------------------------x---|-----------|----------------
-|--/--------------------------------------------|-----------|----------------
 trem.pick            <                           trem.pick                   

-|--5--------5--------5----0--0--0--0-----|------x----------|----------------
-|--5--------5--------5----5--5--5--5-----|-x-/--x----------|----------------
-|----------------------------------------|-x-/-------------|----------------
-|----------------------------------------|-----------------|----------------
-|----------------------------------------|------------------|----------------
-|----------------------------------------|------------------|----------------
 Chorus(2:23) G1         etc...repeat E’s  G2(wah, noise, scrapes)            

-|-0---0---0---0---0---0---0---0--|-------------------------|-----------------
-|-5---5---5---5---5---5---5---5--|-------------------------|-----------------
-|--------------------------------|-------------------------|-----------------
-|--------------------------------|-------------------------|-----------------
-|--------------------------------|-------------------------|-----------------
-|--------------------------------|-------------------------|-----------------
 G1 (3:25)   etc, repeat           G2-noises, wah, scrapes                    

-|--------------22--22-22-22-----------|--------------------------------------
-|-------------------------------------|--------------------------------------
-|-x--x--x----------------x---x---|--------------------------------------
-|-x--x--x----------------x---x---|--------------------------------------
-|-x--x--x--------------------------|--------------------------------------
-|-------------------------------------|--------------------------------------
 G2 4:05                 repeat, improv  random noises rest of song...