Název skladby
    
Interpret, skladatel
    
Část textu písně
    

Texty písní:
A B C D E F G H
I J K L M N O P
Q R S T U V W X
Y Z ...

Interpreti:
A B C D E F G H
I J K L M N O P
Q R S T U V W X
Y Z ...



Horkýže Slíže [-] Transpozice [+]   Tisk textu     


Veľká mača,vincov háj

Horkýže Slíže



G,A#,D#,A#


solo:
E------------------/----------------------------/
H--6---------------/---6---6---6---6666---6-----/
G-----7---5-7-5-3--/-----7---7---7------7---7---/
D------------------/----------------------------/
A------------------/----------------------------/
E------------------/----------------------------/

SLOHA:
G,A#,D#,A#                    
 (co to bolo za kretena....)
G,A#,D,F(8 prazec),A#,D                 
 (od tych cias sa musim domov vracat..

R:
D#,A#,G,A#,G,F           
(daj na moje slova....)

R2:(rozkopana cesta je ......)

G,A#


      E----------------------------------
      H----------------------------------
      G----------------------------------
      D----------------------------------
      A--3----------------------5-5------
      E-----3--6-----6--3--6--3------6-5-