Název skladby
    
Interpret, skladatel
    
Část textu písně
    

Texty písní:
A B C D E F G H
I J K L M N O P
Q R S T U V W X
Y Z ...

Interpreti:
A B C D E F G H
I J K L M N O P
Q R S T U V W X
Y Z ...



Horkýže Slíže [-] Transpozice [+]   Tisk textu     


Žigo - taby

Horkýže Slíže




	 ( tabbed by Andy Krajčo Boston)

vysvetlivky:
* - tlmenie
(v tomto prípade toho istého akordu)

Všetci vieme, že skladbu Žigo nevymysleli 
Horkýže slíže, ale pink Floyd.
Hrá sa to skoro rovnako, lenže gitarista
z Horkýže slíže si základný riff trošku 
uľahčil. V riffe a. je to po úprave 
Horkýže slíže.

riff.a 
Keď som išiel...
E -5--5-5--*-*-5-*-*-5-*-*-/
H -6--6-6--*-*-6-*-*-6-*-*-/
G -7--7-7--*-*-7-*-*-7-*-*-/
D -7--7-7--*-*-7-*-*-7-*-*-/
A -5--5-5--*-*-5-*-*-5-*-*-/
E -5--5-5--*-*-5-*-*-5-*-*-/


riff.b po jeho konci musíte prejsť na riff.a
E ---------------------------------/Tento riff 
H ---------------------------------/trvá asi 
G ----------------7---7------5---7-/30 sekúnd.
D -5---5---5---5--7---7--3---5---7-/Hrajte ho len 
A -5---5---5---5--5---5--3---3---5-/s CD-čkom. 
E -3---3---3---3---------1---------/a naozaj pomaly.
prvé štyri G-čka trvajú dlho a aj na C-čku a D-čku
musíte vydržať a zaimprovizovať. na konci riffu 
pomaly prejdite na riff.a


Keď nájdete chybu zamailujte a tak podobne.
Ak chcete ešte iné moje taby tak som tu pre
Vás.: andykboston@euroweb.sk
		s pozdravom Váš Andy