Název skladby
    
Interpret, skladatel
    
Část textu písně
    

Texty písní:
A B C D E F G H
I J K L M N O P
Q R S T U V W X
Y Z ...

Interpreti:
A B C D E F G H
I J K L M N O P
Q R S T U V W X
Y Z ...



Enrique Iglesias [-] Transpozice [+]   Tisk textu     


Hero

Enrique Iglesias




 G  Emi  C   D
-3- -3- -3- -3-
-3- -3- -3- -3-
-0- -0- -0- -2-
-0- -2- -2- -0-
-2- -2- -3- -x-
-3- -0- -x- -x- 


Intro:
GEmiCD
   

Let me be your hero...

          G       
Would you dance,
                  Emi     
If I asked you to dance?
          C     
Would you run,
               D      
And never look back?
          G     
Would you cry,
              Emi      
If you saw me crying?
          C       D      G       
Would you save my soul tonight?

Would you tremble,
If I touched your lips?
Would you laugh,
oh please tell me this.
Now would you die,
For the one you love.
Hold me in your arms tonight.

R:
G     D            C      
I can be your hero baby.
G     D             C      
I can kiss away the pain.
                     D               C      
I will I will stand by you forever.
G       D              C      
You can take my breath away.

Would you swear,
That you’ll always be mine?
Would you lie,
would you run back?
Am I in too deep?
Have I lost my mind?
I don’t care, you’re here tonight.

I can be your hero, baby.
I can kiss away the pain.
I will stand by you forever.
You can take my breath away.

Solo:
G, EmiC, D, G     
 {  }<--rychleji


---------------------------------------------------------------------
--------------------------7--------7h8-7--------------------------------
----------------5s7-7-7-7---7-----7------7--------------------7---------
--5-5-5-7s9-9---5s7-7-7-7---7----7----------7--5--------7r5-7------------
---------------------------------------------------------------------
---------------------------------------------------------------------



Emi                          
Oh, I just want to hold you
I just want to hold you

                     G      
Oh yeah, Am I in too deep?
               Emi    
Have I lost my mind?
        C            D      G       
I don’t care, you’re here tonight.

I can be your hero baby.  
I can kiss away the pain.  
I will stand by you forever.
You can take my breath away.

I can be your hero baby   
I can kiss away the pain   
I will stand by you forever 
You can take my breath away.
You can take my breath away.
I can be your hero.