Název skladby
    
Interpret, skladatel
    
Část textu písně
    

Texty písní:
A B C D E F G H
I J K L M N O P
Q R S T U V W X
Y Z ...

Interpreti:
A B C D E F G H
I J K L M N O P
Q R S T U V W X
Y Z ...



HT [-] Transpozice [+]   Tisk textu     


Deti zla

HT



intro/verse:

E---------------------------------------------/
H---------------------------------------------/
G----0---------0------------0----------0------/
D------4---------4------------2----------2----/
A-22-----2--22------2----00------0--00-----0--/
E---------------------------------------------/
koniec:
e----------------------------------/
h----------------------------------/
g----------------------------------/
d---0--0--0---------0--0--0--------/
d---4--4--4---------2--2--2--------/
a---2--2--2---------0--0--0--------/
e----------------------------------/
niet sa comu divit  nikto z nas nie je nevinny