Název skladby
    
Interpret, skladatel
    
Část textu písně
    

Texty písní:
A B C D E F G H
I J K L M N O P
Q R S T U V W X
Y Z ...

Interpreti:
A B C D E F G H
I J K L M N O P
Q R S T U V W X
Y Z ...



Jimi Hendrix [-] Transpozice [+]   Tisk textu     


Wild Thing

Jimi Hendrix



"Wild Thing"  -performed by Jimi Hendrix at the Monterey Pop
festival- the chords go like this

G#, G#, XXX, C#, C#, C#, - D#, D#, XXX, C#, C#, C#

Wild Thing!--------------------  you know the rest
   

G# -- G#11, G#, G#11, G#
--hold
Come here and sock it to me one more time-- listen to the record
you know this part

G#11+ +333333+ +

here comes the solo  -one of my favorites  and easiest!  in G#

----------------------------------------------------------
-------------------------9--------------------------------
-9-11r9-11-9-11~~---9-11---11-9----9r8----9r8-9--8-9~-----
----------------------------------------------------------
----------------------------------------------------------
----------------------------------------------------------
                                           
----------------------------------------|----------------4-----
----------------------------------------|----------------4-----
-8-9d/11--9--8--9r8-------9----9----9~~-|-----------4t6--5b----
---------------------11-----11---11-----|-9b|h|r|7-------4-----
----------------------------------------|---------9------6b----
----------------------------------------|----------------4-----
          				 little unsure here^



(A little known fact, Hendrix took this solo from the "Strangers
 In The Night" by Frank Sinatra) 
                                         
the rest of the solo is just feedback destortion from overdrive
and tube screamers and wah and of couse him smashing his guitar