Název skladby
    
Interpret, skladatel
    
Část textu písně
    

Texty písní:
A B C D E F G H
I J K L M N O P
Q R S T U V W X
Y Z ...

Interpreti:
A B C D E F G H
I J K L M N O P
Q R S T U V W X
Y Z ...



Eric Clapton [-] Transpozice [+]   Tisk textu     


Tears In Heaven

Eric Clapton



Intro (simplified):

 _|              G            D            Em           G  
 E|------------|-------3----|-------2----|-------0----|-------3----|
 B|------------|-------0----|-------3----|-------0----|-------0----|
 G|------------|----0-----0-|----2-----2-|----0-----0-|----0-----0-|
 D|------------|------------|-0----------|------------|------------|
 A|------------|------------|------------|-2----------|------------|
 E|---------0-2|-3----------|------------|------------|-3----------|


 _|  C           D7sus  D7     G  
 E|-------0----|-------2----|-------3----|-3----------|
 E|-------2----|-------1----|-------0----|-0----------|
 E|----0-----0-|----2-----2-|----0-----0-|-0----------|
 E|------------|-0----------|------------|------------|
 E|-3----------|------------|------------|------------|
 E|------------|------------|-3----------|------------|

 G         D       Em   G   C     G          D
Would you know my name      if I saw you in heaven
 G       D       Em    G    C     G          D
Would it be the same        if I saw you in heaven

  Em         B      Dm        E
  I must be strong   and carry on
            Am           D7sus  D7      G
  'Cause I know I don't belong  here in heaven

 G         D      Em    G    C     G          D
Would you hold my hand       if I saw you in heaven
 G         D       Em    G    C     G          D
Would you help me stand       if I saw you in heaven

   Em           B    Dm                  E
  I'll find my way    through night and day
            Am              D7sus   D7       G
  'Cause I know I just can't stay   here in heaven

Bridge:
 Bb       F         Gm
Time can bring you down,
          C         F     C    Dm    C    F
time can bend your knees
 Bb       F          Gm
Time can break your heart
          C      F      C      D
have you beggin please beggin please

Opakovat 2x

   Em         B    Dm                  E
  Beyond the door   there's peace for sure
         Am                  D7sus    D7         G
  And I know there'll be no more       tears in heaven