Název skladby
    
Interpret, skladatel
    
Část textu písně
    

Texty písní:
A B C D E F G H
I J K L M N O P
Q R S T U V W X
Y Z ...

Interpreti:
A B C D E F G H
I J K L M N O P
Q R S T U V W X
Y Z ...



U2 [-] Transpozice [+]   Tisk textu     


Do You Feel Loved

U2




Intro:
Riff 1 - 4x
--------0-----------0------0-----------0----
----3-------3-3--------3-------3-3----------
--4---4---4-----4--4-4---4---4-----4--4-4---
--------------------------------------------
--------------------------------------------
--------------------------------------------

pak Riff 2 - basová line
---------------------------------
---------------------------------
---------------------------------
---------------------------------
---------------------------------
-0--3-3-3--5-5--5-3-3-3--0-0-----

a Sloka
Em    Em/G   G   Gadd9/6
-------------------------------
-0-----0----0------0-----------
-0-----0----0------0-----------
-2-----2----0------2-----------
-2-----2----2------0-----------
-0-----3----3------3-----------

+riff 2 (bass)

Emi        Emi/G G       Gadd9/6  Em       
Take these hands they’re good for nothing
               Emi/G G     Gadd9/6  Emi  
You know these hands never worked a day
           Emi/G G       Gadd9/6Emi     
Take these boots they’re going nowhere
               Emi/G G     Gadd9/6 Emi    
You know these boots don’t want to stray

Riff 1

You got my head filled with songs
You got my shoelaces undone
 Emi               D                  
 Take my shirt, go on take it off me
        G           
You can tear it up
           A            
If you can tie me down

Refrén:
Emi    G       A    
Do you feel loved 
Do you feel loved
Do you feel loved
Do you feel loved

Riff 1

Take the colours of my imagination
Take the scent hanging in the air
Take this tangle of a conversation
And turn it into your own prayer
With my fingers as you want them
With my nails under your hide
Emi                   D     
With my teeth at your back
       G                      A              
And my tongue to tell you the sweetest lies

Do you feel loved
Do you feel loved
Do you feel loved
       G              A    
And it looks like the sun
       G              A     
But it feels like the rain
Oh...

Love’s a bully pushing and shoving
In the belly of a woman
Heavy rhythm taking over
To stick together
A man and a woman
Stick together
Man and woman
Stick together...
And I feel loved
Do you feel loved
Do you feel loved
And it looks like the sun
But it feels like the rain
And there’s heat in the sun
To see us through the rain
Do you feel loved
Do you feel loved
Do you feel...
Do you feel...


Outro:
--------------------
--4b-5br-4b-5br-4b--
--------------------
--------------------
--------------------
--------------------