Název skladby
    
Interpret, skladatel
    
Část textu písně
    

Texty písní:
A B C D E F G H
I J K L M N O P
Q R S T U V W X
Y Z ...

Interpreti:
A B C D E F G H
I J K L M N O P
Q R S T U V W X
Y Z ...



Konflikt [-] Transpozice [+]   Tisk textu     


Zelená (tab)

Konflikt



e ||--------------------------------------------------
H ||--------------------------------------------------
G ||--------------------------------------------------
D ||-5---------------5-----5---------------5----------
A ||-3-5-3-3-3-3-3-3-3-5-3-3-5-3-3-3-3-3-3-3-5-3-3-5--
E ||---3-1-0-1-0-1-0---3-1---3-1-0-1-0-1-0---3-1-0-3--

e ||------------------------------------------------------|
H ||------------------------------------------------------|
G ||------------------------------------------------------|
D ||-2-0-2-2-0-2-0-2-0-2-2-0-3-0---2-0-2-2-0-2-0-2-0-2-2--|
A ||-3-3-3-3-3-3-3-0-0-0-0-0-0-0---3-3-3-3-3-3-3-0-0-0-0--|
E ||------------------------------------------------------|

e ||------------------------------------------------------
H ||------------------------------------------------------
G ||------------------------------------------------------
D ||------------------------------------------------------
A ||-3---3-5-------0-2-3-2-3-0-3-5-------0-2-3-2-3---3-5--
E ||-1-0-1-3-0-1-3---------1---1-3-0-1-3---------1-0-1-3--

e ||------------------------------------------------------|
H ||------------------------------------------------------|
G ||------------------------------------------------------|
D ||---------------5-5-3-2-0------------------------------|
A ||-------0-2-3-2-3--------------------------------------|
E ||-0-1-3------------------------------------------------|

Spev:

e ||------------------|-------------------------------------
H ||------------------|-------------------------------------
G ||------------------|-------------------------------------
D ||-2-2-2-2----------|-5-2-5-2-----------------------------
A ||-3-0-3-0-3-5-3-5--|-3-0-3-0-3---3-5---3-0-3-5---3---3-5-
E ||---------1-3-1-3--|---------1-0-1-3---1---1-3---1-0-1-3-

                 Refren:

e ||------------|------------------------------------------
H ||------------|------------------------------------------
G ||------------|------------------------------------------
D ||-5-4-5-4-5--|-5---5---5-----5---5---5---5-----5--------
A ||-3-2-3-2-3--|-3-6-3-5-3-3-5-3---3-6-3-5-3-3-5-3--------
E ||------------|---4---3---1-3-------4---3---1-3----------


e ||------------------------------------------------------|
H ||------------------------------------------------------|
G ||------------------------------------------------------|
D ||---------5-3-2-0--------------------------------------|
A ||-5-5-5-5----------------------------------------------|
E ||-3-3-3-3----------------------------------------------|


Si vojakom v armáde, na rozkaz brániš vlast
šaškuješ tu v zelenom, tazké boty a plášt
vyhodené peniaze a zahodený èas
niekto sa v tom vyzije, kým ty drzíš stráz
rf:
plod slovenskej armády, na posmech v kazdom znení
vzorom starí bratia sovieti, nechce sa mi verit

musíš plnit rozkazy, poslúchat a zvládnut
vernost našej republike v boji za òu padnút
budú ta chciet vymazat, zrušit tvoju mysel
veï rok vojny vydrzíš, tak sa na to vyser
rf:
plod slovenskej armády, na posmech v kazdom znení
vzorom všetci spoza hraníc, nechce sa mi verit

{Nie je problem priradit si k tomu text.Dalsie texty a akory najdete na www.konflikt.sk}