Název skladby
    
Interpret, skladatel
    
Část textu písně
    

Texty písní:
A B C D E F G H
I J K L M N O P
Q R S T U V W X
Y Z ...

Interpreti:
A B C D E F G H
I J K L M N O P
Q R S T U V W X
Y Z ...



Cranberries [-] Transpozice [+]   Tisk textu     


Ode to my Family

Cranberries



Intro Riff:
E-2---|-2---|-2---|-2---|-2---|-2---|-2---|-------|
H---3-|---3-|---2-|---3-|---3-|---3-|---2-|-3-----|
G-----|-----|-----|-----|-----|-----|-----|---2---|
D-----|-----|-----|-----|-----|-----|-----|-----4-|

Verse Riff:
H-3-----3---3-----|-3-----3---3-----|-2-----2---2-----|
G---2-----2---2---|---4-----4---4---|---2-----2---2---|
D-----4---------4-|-----4---------4-|-----4---------4-|

H-3--------------------|
G---2---2h4p2-2h4p2-24-|
D-----4----------------|


                    D,Hmi,F#mi,G
Postupnosť akordov: 
            D 
Zakončenie: 

Slová:

Understand the things I say
Don’t turn away from me
Cause I spent half my life out there
You wouldn’t disagree
D’you see me, d’you see, do you like me
Do you like me standing there
Do’you notice, d’you know,
Do you see me, do you see me
Does anyone care

Unhappiness where’s when I was young
And we didn’t give a damn
Cause we were raised
To see life as fun and take it if we can
My mother, my mother she hold me
Did she hold me when I was out there
My father, my father he liked me
Oh he liked me, does anyone care

Understand what I’ve become
It wasn’t my design
And people everywhere think
Something better than I am
But I miss you, I miss
Cause I liked it, I liked it
When I was out there
D’you know me, d’you know
You did not find me, you did not find
Does anyone care

Unhappiness was when I was young
And we didn’t give a damn
Cause we were raised
To see life as fun and take it if we can
My mother, my mother she hold me
Did she hold me when I was out there
My father, my father he liked me
Oh he liked me, does anyone care

Does anyone care