Název skladby
    
Interpret, skladatel
    
Část textu písně
    

Texty písní:
A B C D E F G H
I J K L M N O P
Q R S T U V W X
Y Z ...

Interpreti:
A B C D E F G H
I J K L M N O P
Q R S T U V W X
Y Z ...



Queen [-] Transpozice [+]   Tisk textu     


Now I'm here

Queen




Now I'm here
Queen

---------|----|--------|---------|-------------------------|---------|
|---------|----|------2-|-3-------|-------------------------|---------|
|-22222222|-0/-|-222220-|-22222222|-----------------00000000|-000000-0|
|-00000000|-/0-|-0000000|-00000000|-000000000000000000000000|-000000-0|
|---------|----|--------|---------|-333333332222222211111111|-1111113-|
|---------| 3X |--------|---------|-------------------------|---------| riff A


|---------|----|--------|----------|-----------------|------------------|
|---------|----|------2-|-3--------|-----------------|-------2-3--------|
|-22222222|-0/-|-2222202|-222222222|-----------------|-2222220-222222222|
|-00000000|-/0-|-0000000|-000000000|-0000000000000-00|-00000000000000000|
|---------|----|--------|----------|-33333333222223--|------------------|
|---------|----|--------|----------|-----------------|------------------|


|----------------|---------------------------------------------|
|----------------|-2----3---32----3----4----5----54----5---2-2-|
|----------------|-2----0---02----0----4----4----44----4---4-4-|
|----------000000|-2----2----2----2----4----4-----4----4---4-4-|
|-333333332222222|-0----0----0----0----2----2-----2----2---4-4-|
|----------------|---------------------------------------------|


|----------------------------------------------5-5--------------|
|---------------3-3-------------9-9--9-109---7-5-5-------------|
|---------------2-2-------------9-9--9--99---7-6-6-------------|
|-----2--4-2----0-02--4-4-------9-9--9---9---7-7-7------------|
|--------2-0----0--2-2-----577-7777---7---5-7-7--------------|
|-0-34-0-----340---------2-567--0-0000---0-----5-5-------------|




|-5557-7--------/55557-7-7---------/12121212121212111112121111-9-9|
|-7777-7-79-----/77777-7-79-7------/141414141414141212141412121010|
|---------978-------------978-------------------------------------|
|------------9---------------97-----------------------------------|
|------------------------------9----------------------------------|
|-----------------------------------------------------------------|

|-77-------------------------------------------------------------------------|
|-77977--7---77---77...------------------------------------------------------|
|---978--7---77---77...-----------------------------------------------------|
|------977---77---77...------------------------------------------------------|
|--------9--999--999...------------------------------------------------------|
|----------------------------------------------------------------------------|