Název skladby
    
Interpret, skladatel
    
Část textu písně
    

Texty písní:
A B C D E F G H
I J K L M N O P
Q R S T U V W X
Y Z ...

Interpreti:
A B C D E F G H
I J K L M N O P
Q R S T U V W X
Y Z ...



Scorpions [-] Transpozice [+]   Tisk textu     


Holiday (TAB)

Scorpions



(b) full bend
/  Slide

intro solo (Acoustic Guitar)
----------------------------------------------------------------------------
-----------------------------------------------------------------------8(b--
-------------------------------------------7-7--9-10-9------9-10-9----------
-0---3----5/7----5--2------5--3--5-5/7--------------------------------------
----------------------------------------------------------------------------
----------------------------------------------------------------------------

----------------------------------------------------------------------------
-8---6-5------------6-5------5----6--5--------------------------------------
---------7---------------7--------------7-----------------------------------
------------7------------------------------7--------------------------------
----------------------------------------------------------------------------
----------------------------------------------------------------------------

----------------------------------------------------------------------------
-------------------------------------------------------------------8--8(b)--
------------------------------------------5---7------7---9--10--------------
0----3----5/7---5--3----5---5/7------------------7--------------------------
----------------------------------5-----------------------------------------
----------------------------------------------------------------------------


It crude but its real.

Here is the real rythym for the end acoustic guitar.  I have seen some other 
versions of this posted different places but I got this from watching
Rudolph Scheinker live!

(Sorry a little mushed together)

----1--------1---------------1---------1---------------1-------1-------------
------3--------3------3---------3---------3-----3----------3-------3-----3---
--------2--------2-------------------2--------2---------------2-------2------
-0---------------------------------------------------------------------------
-------------------------3--------------------------1------------------------
-----------------------------------------------------------------------------

-----0---------0----------------5------5--------------------------------------
--------3---------3------3---------5------5-----5-----------------------------
-----------2---------2----------------2------2--------------------------------
2----------------------------2---------------------------Repeat---------------
------------------------------------------------------------------------------
------------------------------------------------------------------------------