Název skladby
    
Interpret, skladatel
    
Část textu písně
    

Texty písní:
A B C D E F G H
I J K L M N O P
Q R S T U V W X
Y Z ...

Interpreti:
A B C D E F G H
I J K L M N O P
Q R S T U V W X
Y Z ...



Nocadeň [-] Transpozice [+]   Tisk textu     


Steny - verzia 2

Nocadeň



gitara I.
e----------------------------------------------------
h-0-------------------0-----------------------0------
G-2-------------------4-----------------------6------
D-2-------------------4-----------------------6------
A-0-------------------0-----------------------0------
E----------------------------------------------------
  Buď ticho nechaj sa viesť spolu dotkneme sa hviezd 

e----------------------------------------------------
h----------------------0----------------0---------0----
G----------------------8---------------10-------11---
D----------------------8---------------10-------11---
A----------------------0----------------0---------0----
E----------------------------------------------------
ja viem že znie to jak gýč ak chceš už nepoviem nič 
.....