Název skladby
    
Interpret, skladatel
    
Část textu písně
    

Texty písní:
A B C D E F G H
I J K L M N O P
Q R S T U V W X
Y Z ...

Interpreti:
A B C D E F G H
I J K L M N O P
Q R S T U V W X
Y Z ...



Horkýže Slíže [-] Transpozice [+]   Tisk textu     


Sklonovanie

Horkýže Slíže



Horkýže slíže - SKLONOVANIE
(tabbed by Andy Krajčo Boston )

Táto skladba je iba o rockových akordoch. 

    nominatív, genitív ...

E -----------------------------------------/
h -----------------------------------------/
G ------------5----7--------------5---10---/ 
D --8----5----5----7----8----5----5---10---/
A --8----5----3----5----8----5----3----8---/
E --6----3--------------6----3-------------/




Si obyčajný niktoš Ha ha ha...
E -----------------------------------------/
h -----------------------------------------/
G ------8-8--7--7----10--10----------------/
D -7-7--8-8--7--7----10--10----------------/
A -7-7--6-6--5--5----8---8-----------------/ 
E -5-5-------------------------------------/


Toto je celá skladba nemal by byť problém, 
aspoň si myslím. Keby ste niečo potrebovali,
alebo keď nájdete chybu môžme to cez e-mail
predebatovať. Môj e-mail: andykboston@euroweb.sk 

			S pozdravom váš Andy