Název skladby
    
Interpret, skladatel
    
Část textu písně
    

Texty písní:
A B C D E F G H
I J K L M N O P
Q R S T U V W X
Y Z ...

Interpreti:
A B C D E F G H
I J K L M N O P
Q R S T U V W X
Y Z ...



Horkýže Slíže [-] Transpozice [+]   Tisk textu     


Vodník 100%SKA - taby

Horkýže Slíže



------------------------------------------------------------
                           Horkýže slíže-Vodník (100%)
------------------------------------------------------------
 Zdravím všetkých slížakov ked vam niečo nesedí mailnitemi na babajagax@pobox.sk
 -NA INTRO SOM SA VYSRAL!!!

 BASA !!!pozor ritmicky nesedí z gitaramy!!!

G------------------------------)
D------------------55-3-1------)
A-3-33-------------------------)
E------3-33-4-3-4--------------)

 1 GITARA (Efekt-asi chorus)-hrat sekano ako ska

E--3-3-3-3---3-3-3-3---4-4-4-4---3-3-3-3-----)
B--4-4-4-4---3-3-3-3---4-4-4-4---3-3-3-3-----)
G--5-5-5-5---4-4-4-4---5-5-5-5---4-4-4-4-----)
D--5-5-5-5---5-5-5-5---6-6-6-6---5-5-5-5-----)
B--------------------------------------------)
G--------------------------------------------)
 
2 GITARA(efekty- wah pedal+chorus)-hrat cele akordy 

E------------3---3-----4---4-----3---3----)
B--5---5-----3---3-----4---4-----3---3----)
G--5---5-----4---4-----5---5-----4---4----)
D--5---5-----5---5-----6---6-----5---5----)
A--3---3-----5---5-----6---6-----5---5----)
E------------3---3-----4---4-----3---3----)