Název skladby
    
Interpret, skladatel
    
Část textu písně
    

Texty písní:
A B C D E F G H
I J K L M N O P
Q R S T U V W X
Y Z ...

Interpreti:
A B C D E F G H
I J K L M N O P
Q R S T U V W X
Y Z ...



Horkýže Slíže [-] Transpozice [+]   Tisk textu     


Čundr bejby - taby

Horkýže Slíže



( tabbed by Andy Krajčo Boston )


vysvetlivky: 
/ - glisando,(koniec riadku)

Riff.a
Tento riff sa hrá na začiatku a v strede 
skladby. Opakuje sa to 5 krát a potom hráte
už aj s riffom b...

E ----------------------/
H ----------------------/
G -7-7-7-7-7-7-7-7-/-5--/
D -7-7-7-7-7-7-7-7-/-5--/
A -5-5-5-5-5-5-5-5-/-3--/
E ----------------------/

Riff.b
( čundr bejby, čundr bejby)
Poznámka: refrén je v tejto skladbe riff.b,
ale sloha je riff.a a riff.b.
E --------------------------/
H --------------------------/
G -7-7---5-5----------------/
D -7-7---5-5--5-5---7-7-----/ 
A -5-5---3-3--5-5---7-7-----/
E ------------3-3---5-5-----/
Pri prechode G-čka na A-čko trošku kĺznite.

Riff.b/c
Pred refrénom nadväzuje na riff.b.
Opakujte ho dvakrát a hrajte opäť riff.b

E ----------------------------/
H ----------------------------/
G -9-9-9-9-9-9-9-9-10------10-/
D -9-9-9-9-9-9-9-9-10------10-/
A -7-7-7-7-7-7-7-7--8---------/
E ----------------------------/

SÓLO
môžete hrať aj bez prázdnych strún, ale
Horkýže slíže to hrajú s nulou. Napíšem
Vám to ako to má byť.
Samozrejme prázdnu strunu hrajte ako pull-off
Zahráte trsátkom len prvú notu a prázdnu len
brnknete ľavou rukou.
E ---------------------------------/
H -6-0-5-0-------------------------/
G ---------7-0-5-0-7-0-4-0-5-0-7-0-/ 4 krát
D ---------------------------------/opakujte
A ---------------------------------/
E ---------------------------------/    

E ---------------------------------------/
H 13-0-12-0------------------------------/
G ---------14-0-12-0-14-0-11-0-12-0-14-0-/1 krát
D ---------------------------------------/
A ---------------------------------------/
E----------------------------------------/

E 13-0-12-0-----------------------------/
H ---------15-0-13-0-15-0-12-0-13-0-15--/
G --------------------------------------/
D --------------------------------------/
A --------------------------------------/
E --------------------------------------/

E ---------------------------------/
H -6-0-5-0-------------------------/
G ---------7-0-5-0-7-0-4-0-5-0-7-0-/ 6 krát
D ---------------------------------/opakujte
A ---------------------------------/
E ---------------------------------/
... a pokračujete ako vždy...
		
		



Toto je celá skladba. Mne sa strašne páči.
Má niečo v sebe. Naučte sa ju. A podrobnosti 
mi zamailujte. Ak nájdete chybu, alebo chcete
niečo lepšie som tu pre Vás.
andykboston@euroweb.sk
	s pozdravom Váš Andy