Název skladby
    
Interpret, skladatel
    
Část textu písně
    

Texty písní:
A B C D E F G H
I J K L M N O P
Q R S T U V W X
Y Z ...

Interpreti:
A B C D E F G H
I J K L M N O P
Q R S T U V W X
Y Z ...



Horkýže Slíže [-] Transpozice [+]   Tisk textu     


Pouličná lampa - taby - celá plus sólo

Horkýže Slíže




( tabbed by Andy Krajčo Boston )

vysvetlivky:

~ - vibráto
* - tlmenie
()- na akú danú notu prst vytiahnúť
p - pull off

riff.a
E -7--7-7-7--7--7-7-7---5--5-5-5--5--5-5-5--/
H -7--7-7-7--7--7-7-7---5--5-5-5--5--5-5-5--/
G -7--7-7-7--7--7-7-7---6--6-6-6--6--6-6-6--/
D -9--9-9-9--9--9-9-9---7--7-7-7--7--7-7-7--/
A -9--9-9-9--9--9-9-9---7--7-7-7--7--7-7-7--/
E -7--7-7-7--7--7-7-7---5--5-5-5--5--5-5-5--/

Riff.a sa hrá aj počas spevu. Hrajú sa teda rovnaké
akordy, ale pravá ruka hrá trošku inak. Treba počuť. 

riff.b (refrén) h-mol, D dur, E dur, Fis dur
E ----------------------/
H ----------------------/
G -------7-7------------/
D -9-9---7-7--2-2--4-4--/
A -9-9---5-5--2-2--4-4--/
E -7-7--------0-0--2-2--/



SÓLO

E -----------------------------------------------------|
H -----------------------------------------------------|
G -4-2-4~--4-4-4--2-------------------------*2--4-2-4~-|
D ------------------5-4--2-4~-------*0*2*4*5-----------|
A ----------------------------*0*2*4-------------------|
E -----------------------------------------------------|



E 12-10-9-10-9--------------------|--------------------------|
H ------------12-10-12-10-8-10-12~|10-12-1415p14p15p14p-12-14|
G --------------------------------|--------------------------|
D --------------------------------|--------------------------|
A --------------------------------|--------------------------|
E --------------------------------|--------------------------|



E 19-17-19~-19-19-19-17------------|-19-17-------------------|
H ---------------------20-19-17-19~|-------20-19-17----------|
G ---------------------------------|----------------19-18-16-|
D ---------------------------------|-------------------------|
A ---------------------------------|-------------------------|
E ---------------------------------|-------------------------|



E -------------|---------------------------/
H -------------|---------------------------/
G 16-14-16-19~-|---------------------------/
D -------------|-9-------------------------/
A -------------|---12-10-9-7---------------/
E -------------|-------------10-9-7-5-3-5~-/


riff.c (pritvrdená sloha)
E ------------------------------------------------/
H ------------------------------------------------/
G ------------------------------------------8-8-8-/
D 9--9--9--9--9--9--9--9--7--7--7--7--7--7--8-8-8-/
A 9--9--9--9--9--9--9--9--7--7--7--7--7--7--6-6-6-/
E 7--7--7--7--7--7--7--7--5--5--5--5--5--5--------/
Toto je len ukážka, ale neopakuje sa to stále.
riff.d
E -----------------------|------------------------/
H -----------------------|------------------------/
G 7-5-4--2-4-4-2-4-4-4---|-6-4--2-2-2-2--7-7-7-7--/
D 7-5-4--2-4-4-2-4-4-4---|-6-4--2-2-2-2--7-7-7-7--/
A -----------------------|------------------------/
E -----------------------|------------------------/

riff.e
E ---------------------/12--12--12--12--12-12-12-12/
H ---------------------/--10--10--10--10--9--8--7--/
G 7--9*9*9*9--7--9(10)-/---------------------------/
D 7--9*9*9*9--7--9(10)-/---------------------------/
A ---------------------/---------------------------/
E ---------------------/---------------------------/
 Tu sa musíte držať. S tými 12 musíta začať pomaly 
inak sa Vám to bude zdať falošne. 


riff.f
Konečne je tu záver.
E --------------------/
H --------------------/
G --------------------/
D --9-------9--7--9---/
A --9-------9--7--9---/
E --7-------7--5--7---/

Dúfam, že nebudete mať žiadny problém. Ak áno tak mi zamailujte
na mail .: andykboston@euroweb.sk
Veľmi si prajem, aby ste tu nenašli chybu. Ak nájdete nikomu to
nehovorte iba mne. Dúfam že to bude len malý preklep.
			s pozdravom Váš Andy