Název skladby
    
Interpret, skladatel
    
Část textu písně
    

Texty písní:
A B C D E F G H
I J K L M N O P
Q R S T U V W X
Y Z ...

Interpreti:
A B C D E F G H
I J K L M N O P
Q R S T U V W X
Y Z ...



Horkýže Slíže [-] Transpozice [+]   Tisk textu     


Stretol veselý - super tabulatúra

Horkýže Slíže



( tabbed by Andy Krajčo boston )

Vysvetlivky:

/ - glisando(kĺzanie)
* - tlmenie


gitara.1

riff a ( solo )

E --------------------------|----------------------/
h --------------------------|------------------6-8-/
G -4/5-7-8--4/5--7--8-4-5-4-|-4/5-7-8--4/5-7-8-----/
D --------------------------|----------------------/ 
A --------------------------|----------------------/
E --------------------------|----------------------/

gitara.2

riff a ( akordy )

E ------------------------------------/
h ------------------------------------/
G -*5*5--5----------------------------/
D -*5*5--5--*6*6--6--*3*3--3--*5*5--5-/
A -*3*3--3--*6*6--6--*3*3--3--*5*5--5-/
E ----------*4*4--4--*1*1--1--*3*3--3-/

Potom hrajú obidve gitari riff a, nie sólo.
Sólo sa napojí až po refréne(ani sa nepýtaj)

riff b ( refrén )

    Ach jáj ani sa nepýtaj
E ------------------------/
h ------------------------/
G --5------8-----------5--/
D --5------8------8----5--/
A --3------6------8----3--/
E ----------------6-------/

Hneď po refréne sa opäť opakuje riff a (solo)
spolu s riffom a ( akordy ).


Na úplnom konci sa rytmus úplne zrýchli.
Dobrá správa je, že sa hrá to isté.
Najlepšie by bolo, keby ste mali nahrávku,
alebo naspamäť poznať celú skladbu. 

Keby ste mali nejaký problém tak
zamailujte na e-mail.:
andykboston@euroweb.sk
		s pozdravom Váš Andy