Název skladby
    
Interpret, skladatel
    
Část textu písně
    

Texty písní:
A B C D E F G H
I J K L M N O P
Q R S T U V W X
Y Z ...

Interpreti:
A B C D E F G H
I J K L M N O P
Q R S T U V W X
Y Z ...



Konflikt [-] Transpozice [+]   Tisk textu     


Takí sme - taby

Konflikt




Intro(bass):

g---------------------------------
d-----------------0-0-5-4---------
a-2-2-5-4-----5-4---------0-0-5-4-
e---------3-3---------------------

Intro guitar:

2x
e-7-------------------------------
b-7-------------------------------
g---------------------------------
d---------------------------------
a---------------------------------
e---------------------------------

B5        G5		D5	A5
Krikľavé oblečenie

Kožáky pod pásy...


B5 	G5	#A5
		Takí sme

C5 	#D5	D5
		?Punks not dead?

Solo 1

2x
e-7-7-7-7-------
b---------5-5---
g-------------7-
d---------------
a---------------
e---------------

e---------------------------
b-5-3-5-3-5-3-5-3-5-3-5-3-5-
g---------------------------
d---------------------------
a---------------------------
e---------------------------

Solo 2

2x
e-7-7-10-9-----10-9-10-10-12-10-9-------
b----------8-8--------------------12-10-
g---------------------------------------
d---------------------------------------
a---------------------------------------
e---------------------------------------

e-7-7-7-7---------7-7-7-7-5-5-5-5-
b-7-7-7-7-5-5-5-5-7-7-7-7-5-5-5-5-
g---------7-7-7-7-----------------
d---------------------------------
a---------------------------------
e---------------------------------

Words:

Krikľavé oblečenie
Kožáky pod pásy
Roteteny a na hlave
Zafarbené vlasy

Vybíjané opasky
A prázdne vrecká
Už sa dávno skončila
Hra na malé decká

Takí sme- ?punks not dead?
Takí sme- Konflikt

Všetci o nás rozchyrujú
Že sme rebelanti
Že sme hanba národa
Smiešni protestanti

Že ležíme v podchodoch
A na uliciach spíme
A pre blaho národa
Nič už nespravíme