Název skladby
    
Interpret, skladatel
    
Část textu písně
    

Texty písní:
A B C D E F G H
I J K L M N O P
Q R S T U V W X
Y Z ...

Interpreti:
A B C D E F G H
I J K L M N O P
Q R S T U V W X
Y Z ...



Konflikt [-] Transpozice [+]   Tisk textu     


Moje mesto (tab)

Konflikt



Intro:

* - hrat rychlo

                               ***** 
e -----------------------------------
B -----------------------------------
G -----------------------------------
D -------5---7---5-7---------5-7-9-7-
A -5-5-2-3-5-5---3-5-5-5-2---3-5-5-5-
E -3-2-0---3---------3-2-0-----------
   G   E C G D   C D G   E   C D   D


e -------------------------------
B -------------------------------
G -------------------------------
D -------5---7---5-7---------5-7-
A -5-5-2-3-5-5---3-5-5-5-2---3-5-
E -3-2-0---3---------3-2-0-------
   G   E C G D   C D G   E   C D   

cez cely song:

e -----------------
B -----------------
G -----------------
D ---7-9-5---7-5-7-
A -5-5-7-3-5-5-3-5-
E -3-------3-------
   G D E C G D C D

Ref:
e -----------------
B -----------------
G -----------------
D ---7-9-5---7---7-
A -5-5-7-3-5-5-5-5-
E -3-------3---3---
   G D E C G D G D


stavajú ma mimo radu, si iný ako my
vôbec ma to nevzrušuje, som celkom obycajný
a ked ma uz nudíte, som slepý a hluchý
ignorácia, apatia, uz nemám problémy

rf:
ani mna to tu vôbec nebaví, ze musím v tomto meste s vami zit
ani mna to tu vôbec nebaví a je mi z vás velmi zle

lahostajný k spoloènosti, blúdim prázdnym mestom
netúzim po budúcnosti, krácam mojim gestom
nechajte si peniaze, a naplnte si bruchá
a so svojím optimizmom padnete do sucha