Název skladby
    
Interpret, skladatel
    
Část textu písně
    

Texty písní:
A B C D E F G H
I J K L M N O P
Q R S T U V W X
Y Z ...

Interpreti:
A B C D E F G H
I J K L M N O P
Q R S T U V W X
Y Z ...



Horkýže Slíže [-] Transpozice [+]   Tisk textu     


Prispejte! - taby

Horkýže Slíže




 Album: Vo švorici po opici 
 tablatúru napísal: Turo



 basa  hrať 4x aj z gitarou
 g--------------------------------
 d--------------------------------
 a--5-5-8-8-----9-9-5-5-8-8-----9-
 e----------7-7-------------7-7---

 gitara 4x
 e------------------------------------------
 b------------------------------------------
 g---------------------------------11-11-11-
 d---------------------------------11-11-11-
 a---------------------------------9--9--9---
 E------------------------------------------
 
 1 čast !!!1 a 2 časť hrať spolu !!!
 e-------------------------------------)
 b-------------------------------------)
 g-7-7-7-7-9-9-9-9-12-12-12-12-7-7-7-7-)
 d-7-7-7-7-9-9-9-9-12-12-12-12-7-7-7-7-)
 a-5-5-5-5-7-7-7-7-10-10-10-10-5-5-5-5-)
 E-------------------------------------)
 
 2 čast
 e-----------------------------------------)
 b-----------------------------------------)
 g-7-7-7-7-9-9-9-9-------------------------)
 d-7-7-7-7-9-9-9-9-11-11-11-11-12-12-12-12-)
 a-5-5-5-5-7-7-7-7-11-11-11-11-12-12-12-12-)
 E-----------------9--9--9--9--10-10-10-10-)

 gitara z harmonikou
 e-----------------)
 b-----------------)
 g-7-7-7-7---------)
 d-7-7-7-7-9-9-9-9-)
 a-5-5-5-5-9-9-9-9-)
 E---------7-7-7-7-)