Název skladby
    
Interpret, skladatel
    
Část textu písně
    

Texty písní:
A B C D E F G H
I J K L M N O P
Q R S T U V W X
Y Z ...

Interpreti:
A B C D E F G H
I J K L M N O P
Q R S T U V W X
Y Z ...



U2 [-] Transpozice [+]   Tisk textu     


Walk on

U2



Dmi        C                        
...And love is not the easy thing 
G                                   
The only baggage you can bring... 
Dmi                   C                 
...And love is not the easy thing.... 
                          G      
The only baggage you can bring 
Is all that you can’t leave behind 

(Main Riff)
D, A, G, E, D, A, G, E

And if the darkness is to keep us apart
D               A                     G             Emi
And if the daylight feels like it’s a  long way off 
D         A          G                       Emi                    D  
And if your glass heart should crack, before the second you turn back
      A          E 
Oh no, be strong 

Chorus:   (Main riff)

Walk on
Walk on
What you got, they can’t steal it
No they can’t even feel it
Walk on
Walk on
Stay safe tonight

Verse 2:

You’re packing a suitcase for a place, none of us has been
A place that has to be believed, to be seen
You could have flown away
A singing bird, in an open cage
Who will only fly, only fly, for freedom

Chorus:

Walk on
Walk on
What you got
You can’t deny it
Can’t sell it or buy it
Walk on
Walk on
You stay safe tonight

And I know it aches
How your heart it breaks
You can only take so much


Solo:

      Bm                                  G              Em                                                     A
E------------------------------------------------------------------------------
B----------------------------------------15---14---12---12h14-------12h14p12---
G---11h12---12/14---14/16---16---16-----------------------------------------14-

                    Bm                                         G
E----------------------------------------------------------------
B----------------------------------------------------------------
G---12h14p12---11/9---9/11---11---11h12---12/14---14/16---16---16



           Em                                                  A
E-------------------------------------------------------------------------
B---15---14---/10---10---/7---7/10---10/14---14b/r---12-------------14b/r-
G---------------------------------------------------------14-14--14-------


E----------------------------------------------------------------------------
B--12---14---14---14---14b/r---12---12---------------------------------------
G-----------------------------------------14---14/11---9h11p9---7---9/11/9--7


Verse 3:

Home Hard to know what it is
If you never had one
Home I can’t say where it is, but I know I`m going
Home That’s where the heart is
And I know it aches
And your heart it breaks
You can only take so much
Walk on

        D, A, G, Emi
Ending: 

B--------5---5/7----------------5---5/7----------------5---5/7---------
G---2h4------------7------2h4-------------7-----2h4-------------7------

B--------------------------------------
G---7---7---6---6---4---4---2---2------


Leave it behind.    You`ve got to leave it behind

All that you fashion, all that you make, all that you build, all that you break
All that you measure, all that you feel, all this you can leave behind

All that you reason
All that you care

Fade out.