Název skladby
    
Interpret, skladatel
    
Část textu písně
    

Texty písní:
A B C D E F G H
I J K L M N O P
Q R S T U V W X
Y Z ...

Interpreti:
A B C D E F G H
I J K L M N O P
Q R S T U V W X
Y Z ...



Linkin Park [-] Transpozice [+]   Tisk textu     


In the end

Linkin Park



Intro: Na klávesy, ale dá sa aj na gitare!
      
D#, A#, G, F#, F, F, F, F, F# 
  Alebo aj Tabsy!           
                              
       E-------------------
       B-------------------
       G----3-3------------   
       D--1-----4-3-3-3-3-4
       A-------------------
       E-------------------

Chorus:

       E-------------
       B-------------
       G--3--6-------     
       D--1--4--6--4-      
       A--1--4--4--2-
       E--------4--2-