Název skladby
    
Interpret, skladatel
    
Část textu písně
    

Texty písní:
A B C D E F G H
I J K L M N O P
Q R S T U V W X
Y Z ...

Interpreti:
A B C D E F G H
I J K L M N O P
Q R S T U V W X
Y Z ...



Horkýže Slíže [-] Transpozice [+]   Tisk textu     


Obesil sa mu brat - taby

Horkýže Slíže



Album: Vo švorici po opici 
tablatúru napísal: Turo



 pohrebné intro:

e---------------------------)
B---------------------------)
G---------------------------)
D---------------------------)
A---------------------------)
E--6--6-6-6---9-8-6--5-5--6-)

 dozvedel sa to že sa... *-hraj 3x

e---------------------------)
B----------*----*------*----)
G---*----10----6-----10-----)
D--8-----10----6-----10-----)
A--8-----8-----4-----8------)
E--6------------------------)

 refrén *-hraj 4x

e---------------------------------)
B---------*----*-----*------------)
G--*----10----6-----8-------------)
D-8-----10----6-----8-----8-8-----)
A-8-----8-----4-----6-----8-8-----)
E-6-----------------------6-6-----)