Název skladby
    
Interpret, skladatel
    
Část textu písně
    

Texty písní:
A B C D E F G H
I J K L M N O P
Q R S T U V W X
Y Z ...

Interpreti:
A B C D E F G H
I J K L M N O P
Q R S T U V W X
Y Z ...



Konflikt [-] Transpozice [+]   Tisk textu     


Stroje - taby

Konflikt



Intro guitar:
e---------------------------------------------------
b---------------------------------------------------
g---------------------------------------------------
d-10-10-10-10-10-3-3-3-3-3-5-5-5-5-5-10-10-10-10-10-
a-10-10-10-10-10-3-3-3-3-3-5-5-5-5-5-10-10-10-10-10-
e--8--8--8--8--8-1-1-1-1-1-3-3-3-3-3--8--8--8--8--8-

Solo guitar:
e----------------------------------------------------12----12---------
b-13-13-13-13-12-13-13-13-8-10-8-10-8-13-13-13-13-13----13---13-13-13-
g---------------------------------------------------------------------
d---------------------------------------------------------------------
a---------------------------------------------------------------------
e---------------------------------------------------------------------

e----12----12---------------------------------------------------------
b-13----13----8-8-10-8-10-8--8-6--6-5-6-8-5-----------------------6-6-
g-------------------------------------------7-5-5-7-5-5-5-7-9-7-5-----
d---------------------------------------------------------------------
a---------------------------------------------------------------------
e---------------------------------------------------------------------

e-------------------
b-5-6-8-5-----------
g---------7-5-5-7-5-
d-------------------
a-------------------
e-------------------


C5                     
Nahradili stroje žudí
F5                        
Menej práce viacej chuti
G                        C5
A nemusia ani trochu jes

Solo 2:
Prvé dva riadky zo Solo 1 +


e-------12-10-8-
b-5-6-8---------
g---------------
d---------------
a---------------
e---------------



Words:
Nahradili stroje žudí
Menej práce, viacej chuti
A nemusia ani trochu jes

Ja sa teraz doma nudím
Zo spánku sa stále budím
Je to asi nežútostný trest

Roboty, len roboty
Nebudem ma na boty
Budúcnos je jasne stratená

Tam, kam človek nemôže
Všade robot pomôže
Rosahuje svoje ramená