Název skladby
    
Interpret, skladatel
    
Část textu písně
    

Texty písní:
A B C D E F G H
I J K L M N O P
Q R S T U V W X
Y Z ...

Interpreti:
A B C D E F G H
I J K L M N O P
Q R S T U V W X
Y Z ...



Iné kafé [-] Transpozice [+]   Tisk textu     


Úspešne zapojení - taby

Iné kafé



(tabbed by Jucky)

Vazeni, toto je moj prvy tab v zivote, tak sa snazte byt trochu ohladuplny, a tolerovat nejaku tu chybicku...

* - hrat 8-krat(eight times)
^ - hrat 16-krat(sixteen times)

intro(2-krat)

             *        *  
|--------------------------------------|
|--------------------------------------|
|----------------7-7-------------------|
|---9-9------5---7-7--7----------------|
|---9-9------5---5-5--7----------------|
|---7-7------3--------5----------------|

slohy(tlmene - palm muting, hrat 4-krat kazdu slohu, prvy raz slabsie)

    ^               *    
|-----------------------------|
|-----------------------------|
|-------------7-7-7-----------|
|---9--5-5-5--7-7-7-7---------|
|---9--5-5-5--5-5-5-7---------|
|---7--3-3-3--------5---------|

kam sa podel zmysel slova feeling...

|-------------------|
|-------------------|
|-------------------|
|---4--7------------|
|---4--7------------|
|---2--5------------|

refren(presne kolkokrat to treba hrat, treba zistit z pesnicky)

|-----------------------------------|
|-----------------------------------|
|--7---------7---7------------------|
|--7-7-9---5-7---7-7-9----5-7-------|
|--5-7-9---5-5---5-7-9----5-7-------|
|----5-7---3-------5-7----3-5-------|

solo(len cast z neho, a aj tak neviem ci na 100% dobre)

|------------------------------------|
|------------------------------------|
|------------------------------------|
|-12-11-9---4-7-9-7-10-13-14-14------|
|------------------------------------|
|------------------------------------|

potom na posledny krat hrajte vsetko v refrene o cislo vyssie..



uff. a je to. at se vam pisen libi. 3.4.2002