Název skladby
    
Interpret, skladatel
    
Část textu písně
    

Texty písní:
A B C D E F G H
I J K L M N O P
Q R S T U V W X
Y Z ...

Interpreti:
A B C D E F G H
I J K L M N O P
Q R S T U V W X
Y Z ...



Horkýže Slíže [-] Transpozice [+]   Tisk textu     


Logická hádanka - super tab

Horkýže Slíže



( tabbed by Andy Krajčo boston )

vysvetlivky:

* - tlmenie

 Uprostred Sahari leží ...Tento riff je 
základný. Pred logickou hádankou sa ale
hrá ešte G-Dur(V rockovom akorde).

E --------------------------------------/    
h --------------------------------------/    
G -----------------------------8-8---7--/
D -5---5-5--5---5-5---8--8-8---8-8---7--/
A -5---5-5--5---5-5---8--8-8---6-6---5--/
E -3---3-3--3---3-3---6--6-6------------/

 riff.a                                 
E --------------------------------/     
h --------------------------------/      
G --------------------------------/     
D -5-*5-*5--4-*4-*4--3-*3-*3-3--4-/      
A -5-*5-*5--4-*4-*4--3-*3-*3-3--4-/     
E -3-*3-*3--2-*2-*2--1-*1-*1-1--2-/      

riff.b(nazabudnite na tlmenie. Iba prvú
zahráme normálne ostatné tlmíme).
E ---------------------------------/
h ---------------------------------/
G ---------------------------------/
D -5-5-5--4-4-4-3-3-3-3---8--7--5--/
A -5-5-5--4-4-4-3-3-3-3---8--7--5--/
E -3-3-3--2-2-2-1-1-1-1---6--5--3--/

Na konci riffu.b zahráte:
E ---------------/
h --8--6---------/
G --------7------/                
D ---------------/
A ---------------/
E ---------------/

riff.k   Záver:Opakuje sa štyri krát. 
E --------------------------------------/ 
h --------------------------------------/
G --------------------------------------/
D --5--8--7--3--6--5----5--8--7--3-3--5-/
A --5--8--7--3--6--5----5--8--7--3-3--5-/
E --3--6--5--1--4--3----3--6--5--1-1--3-/

Cez riff.k hrá 2.gitara len kĺzanie
hore dole. 
Je to od tretej opakovačky v závere
	Keby ste niečomu nerozumeli
alebo nebodaj našli chybu,zamailujte na:
andykboston@euroweb.sk.
	s pozdravom Váš Andy