Název skladby
    
Interpret, skladatel
    
Část textu písně
    

Texty písní:
A B C D E F G H
I J K L M N O P
Q R S T U V W X
Y Z ...

Interpreti:
A B C D E F G H
I J K L M N O P
Q R S T U V W X
Y Z ...



František Nedvěd /Nedvědi [-] Transpozice [+]   Tisk textu     


Devatenáct

František Nedvěd /Nedvědi



                                   František Nedvěd       - Devatenáct     Gordon Lightfoot // Dušan Vančura                 
     Druhé podání
                   
              
G, Gadd9, G, Gadd9

  G       Gadd9                   
Když ráno čtu v Tvých očích     
  Dmi6/F                
  jsem stá či stoprvá?
  G              Gadd9                  
  Mám strach, že láska skončí         
  
Dmi6/F                      
mám strach, že potrvá     
  G        Gadd9      C       
  Pak něčí hlas shůry zavelí
    D              Emi    
  a trubač trubí - vpřed
   C     G          
  a léta běží zpět     
  C           G/B              
  Najednou je mně i tobě
  Ami7         D          G       Gadd9
  divukrásných devatenáct let     
      

  Když večer čtu v Tvých očích     
  má lásko jediná     
  Když jiskra nepřeskočí
  a spadne do klína
  pak zase hlas shůry zavelí
  já kordem švihám hned
  jak Zorro svoje zet         
  
Najednou je mně i tobě     
  divukrásných devatenáct let         
  
Když ztichne noc a ty usínáš
  ta chvíle před ránem
  já chci Tvých Cyranem
  a Hamletem a Romeem
  a možná, že i d´Artagnanem být
  d´Artagnanem být
  
  Pod Tvou hřívou
  sen se vzpíná
  Pierot i Kolombína
  Na polštáři v tobě dřímá
  divukrásných devatenáct let
  
  Když běh se změní v chůzi
  a chůze krok-sun-krok
  Čekám na dotek můzy
  jak hřebec na obrok
  Ale ten hlas shůry nevelí
  Teď zastavil se svět
  teď zastavil se svět
  Nikomu se ani nesní
  že máš oči jako lesní med
  jako lesní med
  
  Koukáš na mě potměšile
  zachumlaná do košile         
  
Však zas bude mně i tobě
    divukrásných devatenáct let          
    
       
G (intro)    
  |---------------------------------|  
  |---------------------------------| 
  |-----0-----0---2-----2-----2-4-0-|
  |---0-----0---0-----0-----0-------| 
  |---------------------------------| 
  |-3-----3---------3-----3---------|    
  
G   (verse)
  |---------------------------------|
  |---------------------------------|
  |-----0-----0---2-----2-----0---0-|
  |---0-----0---------0-----0-------|
  |---------------------------------|
  |-3-----3-----3---3-----3-----3---|    
  
   Dm6/F                             
  |---------------------------------|
  |---------0---------------0-------|  
  |-----2-----2---2-----2-----2---2-|
  |---0---------0-----0---------0---|
  |---------------------------------|
  |-1-----1---------1-----1---------|    
  
   G   (verrse cont.)    
  
|---------------------------------|
  |-----0-----0---0-----0-----0-----|
  |---0-----0---------0-----0-----0-|
  |-------0-----0-------------------|
  |-----------------------0-----2---|
  |-3---------------3---------------|    
  
   C                D    
  |---------------------------------|
  |-----1-----1---1-----3-----3---3-|
  |---0-----0---------2-----2-------|
  |-------2-----2---0-----0-----0---|
  |-3-------------------------------|
  |---------------------------------|
  
   Em               C                
  |---------------------------------|  
  |-----0-----0---0-----1-----1---1-|
  |---0-----0---------0-----0-------|
  |-------2-----2---------2-----2---|
  |-----------------3---------------|
  |-0-------------------------------|    
  
   G    
  |---------------------------------|
  |-----0-----0---0-----------------|
  |---0-----0-----------------------|
  |-------0-----0-------------------|
  |---------------------------------|
  |-3-------------------------------|
      
  
(Ref.)    
    C                G/B
      |---------------------------------|
  |-----1-----1---------3-----3---3-|
  |---0-----0-----0---0-----0-------|
  |-------2-----2---------0-----0---|
  |-3---------------2---------------|
  |---------------------------------|    
  
   Am7/sus4         D    
  |---------------------------------|
  |-----3-----3---3-----3-----3---3-|
  |---0-----0---------2-----2-------|
  |-------2-----2---0-----0---------|
  |-0-------------------------------|
  |-----------------------------2---|