Název skladby
    
Interpret, skladatel
    
Část textu písně
    

Texty písní:
A B C D E F G H
I J K L M N O P
Q R S T U V W X
Y Z ...

Interpreti:
A B C D E F G H
I J K L M N O P
Q R S T U V W X
Y Z ...



Led Zeppelin [-] Transpozice [+]   Tisk textu     


Whole lotta love

Led Zeppelin



Whole lotta love - LED ZEPPELIN
( tabbed by Andy Krajčo Boston  )

Vysvetlivky:

* - tlmenie
/ - glisando
p - hranie bez pravej ruky
! - vytiahnutie
()- na akú danú notu prst vytiahnúť

riff.a
(začiatok)

E---------------------------------------------------------------
h---------------------------------------------------------------
G--------9--*9-*9-9--*9-*9-9--*9-*9-9--*9-*9-9--*9-*9-9--*9-*9-9
D--------9--*9-*9-9--*9-*9-9--*9-*9-9--*9-*9-9--*9-*9-9--*9-*9-9
A---5--5-7--*7-*7-7--*7-*7-7--*7-*7-7--*7-*7-7--*7-*7-7--*7-*7-7
E-7--7----------------------------------------------------------

riff.b
(sloha)

E ----------------------------------/
h ----------------------------------/
G ------------9--*9-*9--9-*9-*9--9--/
D ------------9--*9-*9--9-*9-*9--9--/
A -----5---5--7--*7-*7--7-*7-*7--7--/
E ---7---7--------------------------/

riff.c
(refrén)

E ----------------------------------------/      
h ----------------------------------------/
G -9--9-9--9--9-9--9--/--7-7--7-7--8--9---/
D -9--9-9--9--9-9--9--/--7-7--7-7--8--9---/
A -7--7-7--7--7-7--7--/--5-5--5-5--6--7---/ 
E ----------------------------------------/

Sólo  
držte sa
E -------------12--------------------------------------|
h --10/12-12------15--12-------------------------------|
G ------------------------15p14p12--14p12--14!(16)-----|
D -----------------------------------------------------|
A -----------------------------------------------------|
E -----------------------------------------------------|

         
E -------------------------------------------------|
h -----3-------------------------------------------|
G -2/4---4p2--0--2p0-------------------------------|
D ---------------------------2p0--2p0--------------|
A -------------------------------------2-----------|
E ---------------------------------------------0---|


E --------12-12--15------12-|-12 15-17!(19)15-12--15p12--|
h -10/-12-------------------|-------------------14-------|
G --------------------------|----------------------------|
D --------------------------|----------------------------|
A --------------------------|----------------------------|
E --------------------------|----------------------------|

  
E ----19!(21)-19---18-17--15-----15-----|
h -17------------------------17-----17--|
G --------------------------------------|
D --------------------------------------|
A --------------------------------------|
E --------------------------------------|

E---------------------------17-19----|
h---17-19-19!(21)--19!(21)--------17-|
G------------------------------------|
D------------------------------------|
A------------------------------------|
E------------------------------------|


Čo poviete?
Ak nájdete chybu, nejaký problém. 
Zamailujte.: andykboston@euroweb.sk
Teším sa na Vás
                      s pozdravom Váš Andy