Název skladby
    
Interpret, skladatel
    
Část textu písně
    

Texty písní:
A B C D E F G H
I J K L M N O P
Q R S T U V W X
Y Z ...

Interpreti:
A B C D E F G H
I J K L M N O P
Q R S T U V W X
Y Z ...



Limp Bizkit [-] Transpozice [+]   Tisk textu     


My generation (Tabs+Text)

Limp Bizkit




         Ladenie (C# F# B E G# C#)

 
 C# |-----------------------------------------------|
 G# |-----------------------------------------------|
 E  |-----------------------------------------------|
 B  |-----------------------------------------------|
 F# |-2-2--2-2--5-5-2-5-5-2---2-2--2-2--5-5-2-5-2-5-|
 C# |-0-0--0-0--3-3-0-3-3-0---0-0--0-0--3-3-0-3-0-3-|

 
 C# |-----------------------------------|
 G# |-----------------------------------|
 E  |-----------------------------------|
 B  |-----------------------------------|
 F# |-----------------------------------|
 C# |--X-X-9-9--X-X-9-9--X-X-9----------|
           * *      * *      *

Pred refrén  

 C# |-----------------------------------|
 G# |-----------------------------------|
 E  |-----------------------------------|
 B  |-----------------------------------|
 F# |--5-5-5----5--5-5------------------|
 C# |--3-3-3----3--3-3------------------|

Refrén RIFF: 
   
 C# |-----------------------------------------------|
 G# |-----------------------------------------------|
 E  |-----------------------------------------------|
 B  |-----------------------------------------------|
 F# |-2-2--2-2--5-5-2-5-5-2---2-2--2-2--5-5-2-5-2-5-|
 C# |-0-0--0-0--3-3-0-3-3-0---0-0--0-0--3-3-0-3-0-3-|

 C# |-------------------------|
 G# |-------------------------|
 E  |-------------------------|
 B  |-------------------------|
 F# |-2-2--2-2--5-5-2-5-5-2---|
 C# |-0-0--0-0--3-3-0-3-3-0---|

        
 C# |---------------------|
 G# |---------------------|
 E  |---------------------|
 B  |---------------------|
 F# |-5---4---4/3-3-------|
 C# |-3---2---2/1-1-------|


SLOHA A: 
 
 C# |----------------------------------------------|
 G# |----------------------------------------------|
 E  |----------------------------------------------|
 B  |--------0h2----------------------0h2----------|
 F# |----------------------------------------------|
 C# |-0--0-0-----3--3-3-3p2-2--0--0-0-----3--3-3-2-|
    
SLOHA B:

 C# |-----------------------------------------------
 G# |-----------------------------------------------
 E  |-----------------------------------------------
 B  |--------0h2----------------------0h2-----------
 F# |-----------------------------------------------
 C# |-0--0-0-----3--3-3-3p2-2--0--0-0-----3--3-3-2--
   
OUTRO:

 C# |--------------------------------|
 G# |--------------------------------|
 E  |--------------------------------|
 B  |--------------------------------|
 F# |-5-5-2-5--5-5---5-5-2-5-2-5--2--|
 C# |-3-3-0-3--3-3---3-3-0-3-0-3--0--|

ŠTRUKTÚRA:

 INTRO x4
 SLOHA x10
 PRED.REFRÉN x2
 REFRÉN x1 
 SLOHA x8
 PRED.REFRÉN x2
 REFRÉN x2   
 REFRÉN 2 x1
 SLOHA A x8
 SLOHA B x4
 PRED.REFRÉN x2
 REFRÉN x2
 OUTRO x1


Slová

INTRO
If only we could fly......
Limp bizkit style   John Otto
Take it to the Matthews bridge  
Can you feel it
My Ge-Ge-Generation
Get up
My Ge-Ge-Generation
Are you ready!

Sloha
Do you know where u are......
Welcome to the jungle punk 
Take a look around
Cuz Limp Bizkit is fuckin up your town
Downloadin the shockwave
For all the ladies in the cave
To get your groove on..
Well maybe im the one who flew over
the cuckoos nest
But guess whos next...who
Genration X, Generation strange
The sun dont even shine 
Through our window pane

PRED.REFRÉN
So go aheand and talk shit
Talk shit about me
So go ahead and talk shit
About My Ge-Ge-Generation

REFRÉN
We dont ...dont give a fuck and
We wont ...ever give a fuck again
Till u do ...give a fuck about me
And My Generation 

Sloha 2
Hey kid take my advice
You dont want to step into a big pile of shite
Captains’ drunk an’ your on this titanic
Floatin on the funk, so get your groove on...
Well maybe I am just a little fucked up
Lifes just a little fucked up
Generation X, Generation strange
The sun dont even shine 
Through our window pane

PRED.REFRÉN
REFRÉN 2X


Who gets the blame
You get the blame
And I get the blame
Who gets the blame
You get the blame
And I get the blame
But do u think we can fly
Do u think we can fly
Do u.... think we can fly
Well I do..
I do......
Fly!!

DJ lethal bring it on

Ohhhhhhh.....yeah   
Come on!

PRED.REFRÉN
REFRÉN 2X