Název skladby
    
Interpret, skladatel
    
Část textu písně
    

Texty písní:
A B C D E F G H
I J K L M N O P
Q R S T U V W X
Y Z ...

Interpreti:
A B C D E F G H
I J K L M N O P
Q R S T U V W X
Y Z ...



Pearl Jam [-] Transpozice [+]   Tisk textu     


Rearviewmirror - taby

Pearl Jam



Transcribed by: Evan Cowan and Dave Coleman

Guitar 1 = Ed Vedder (Telecaster)
Guitar 2 = Stone Gossard (Les Paul)
Guitar 3 = Mike McCready (Stratocaster)

Mike’s outro solo is really hard to hear, I probably missed a few notes

-|--------------------------------------------------------------------|-------
-|--------------------------------------------------------------------|-------
-|--------------------------------------------------------------------|-------
-|-----0----------------0----------------0----------------0-----------|-------
-|---0---0-5-7--------0---0-5-7--------0---0-5-7--------0---0-5-7-----|-------
-|-5-----------0-0--5-----------0-0--5-----------0-0--5-----------0-0-|-------
 G1                                                                           

-|--------------------------------------------------------------------|-------
-|--------------------------------------------------------------------|-------
-|--------------------------------------------------------------------|-------
-|-----0----------------0----------------0----------------0-----------|-------
-|---0---0-5-7--------0---0-5-7--------0---0-5-7--------0---0-5-7-----|-------
-|-5-----------0-0--5-----------0-0--5-----------0-0--5-----------0-0-|-------
 G1,G2,G3                                                                     

-|--------------------------------------------------------------------|-------
-|--------------------------------------------------------------------|-------
-|--------------------------------------------------------------------|-------
-|-----0----------------0----------------0----------------0-----------|-------
-|---0---0-5-7--------0---0-5-7--------0---0-5-7--------0---0-5-7-----|-------
-|-5-----------0-0--5-----------0-0--5-----------0-0--5-----------0-0-|-------
 G1,G2,G3  I                took a   drive today                              

-|--------------------------------------------------------------------|-------
-|--------------------------------------------------------------------|-------
-|--------------------------------------------------------------------|-------
-|-----0----------------0----------------0----------------0-----------|-------
-|---0---0-5-7--------0---0-5-7--------0---0-5-7--------0---0-5-7-----|-------
-|-5-----------0-0--5-----------0-0--5-----------0-0--5-----------0-0-|-------
 G1,G2,G3  Time             to e  -  man  -  ci  -  pate                      

-|--------------------------------------------------------------------|-------
-|--------------------------------------------------------------------|-------
-|--------------------------------------------------------------------|-------
-|-----0----------------0----------------0----------------0-----------|-------
-|---0---0-7-9--------0---0-7-9--------0---0-7-9--------0---0-7-9-----|-------
-|-7-----------0-0--7-----------0-0--7-----------0-0--7-----------0-0-|-------
 G1,G2,G3              I guess it was the beatings             made me        

-|--------------------------------------------------------------------|-------
-|--------------------------------------------------------------------|-------
-|--------------------------------------------------------------------|-------
-|-----0----------------0----------------0----------------0-----------|-------
-|---0---0-5-7--------0---0-5-7--------0---0-5-7--------0---0-5-7-----|-------
-|-5-----------0-0--5-----------0-0--5-----------0-0--5-----------0-0-|-------
 G1,G2,G3 Wise                                                   but I’m      

-|--------------------------------------------------------------------|-------
-|--------------------------------------------------------------------|-------
-|--------------------------------------------------------------------|-------
-|-----0----------------0----------------0----------------0-----------|-------
-|---0---0-7-9--------0---0-7-9--------0---0-7-9--------0---0-7-9-----|-------
-|-7-----------0-0--7-----------0-0--7-----------0-0--7-----------0-0-|-------
 G1,G2,G3           Not about to give thanks                    or apolo-     

-|--------------------------------------------------------------------|-------
-|--------------------------------------------------------------------|-------
-|--------------------------------------------------------------------|-------
-|-----0----------------0----------------0----------------0-----------|-------
-|---0---0-5-7--------0---0-5-7--------0---0-5-7--------0---0-5-7-----|-------
-|-5-----------0-0--5-----------0-0--5-----------0-0--5-----------0-0-|-------
 G1,G2,G3                         -gize                                       

-|-------------------------------------------------------------|--------------
-|-------------------------------------------------------------|--------------
-|-------------------------------------------------------------|--------------
-|-9-9-9-9-9-9-9-9-9-9-9-9-9-11---5-5-5-5-5-5-5-5-5-5-5-5-5-7--|--------------
-|-9-9-9-9-9-9-9-9-9-9-9-9-9-11---5-5-5-5-5-5-5-5-5-5-5-5-5-7--|--------------
-|-7-7-7-7-7-7-7-7-7-7-7-7-7--9---3-3-3-3-3-3-3-3-3-3-3-3-3-5--|--------------
 G1+G2 I couldn’t breathe         holding me down                             

-|-------------------------------------------------------------|--------------
-|-------------------------------------------------------------|--------------
-|-------------------------------------------------------------|--------------
-|-9-9---------------------9-11---5-5---------------------5-7--|--------------
-|-9-9---------------------9-11---5-5---------------------5-7--|--------------
-|-7-7---------------------7-9----3-3---------------------3-5--|--------------
 G3                                                                           

-|-----------------------------3-----------------3-3---3-------|--------------
-|-----------------------------3-----------------3-3---3-------|--------------
-|-----------------------------0-----------------0-0---0-------|--------------
-|-4-4-4-4-4-4-4-4-4-4--4--4---0-----------------0-0---0-------|--------------
-|-4-4-4-4-4-4-4-4-4-4--4--4---2-----------------2-2---2-------|--------------
-|-2-2-2-2-2-2-2-2-2-2--0--2---3-----------------3-3---3-------|--------------
 G1+G2 Hand on my face         pushed to the ground                           

-|-------------------------------------------------------------|--------------
-|-------------------------------------------------------------|--------------
-|-------------------------------------------------------------|--------------
-|-4--------------------4--4---5-5-5-5-5-5-5-5-5-5-5-5-5-5-5-5-|--------------
-|-4--------------------4--4---5-5-5-5-5-5-5-5-5-5-5-5-5-5-5-5-|--------------
-|-2--------------------0--2---3-3-3-3-3-3-3-3-3-3-3-3-3-3-3-3-|--------------
 G3                                                                           

-|-------------------------------------------------------------|--------------
-|-------------------------------------------------------------|--------------
-|-------------------------------------------------------------|--------------
-|-9-9-9-9-9-9-9-9-9-9-9-9-9-11---5-5-5-5-5-5-5-5-5-5-5-5-5-7--|--------------
-|-9-9-9-9-9-9-9-9-9-9-9-9-9-11---5-5-5-5-5-5-5-5-5-5-5-5-5-7--|--------------
-|-7-7-7-7-7-7-7-7-7-7-7-7-7--9---3-3-3-3-3-3-3-3-3-3-3-3-3-5--|--------------
 G1+G2 Enmity gauged              united by fear                              

-|-------------------------------------------------------------|--------------
-|-------------------------------------------------------------|--------------
-|-------------------------------------------------------------|--------------
-|-9-9---------------------9-11---5-5---------------------5-7--|--------------
-|-9-9---------------------9-11---5-5---------------------5-7--|--------------
-|-7-7---------------------7-9----3-3---------------------3-5--|--------------
 G3                                                                           

-|-----------------------------3-3-3-3-3-3-3-3-3-3-3-3-3-3-3-3-|--------------
-|-----------------------------3-3-3-3-3-3-3-3-3-3-3-3-3-3-3-3-|--------------
-|-----------------------------0-0-0-0-0-0-0-0-0-0-0-0-0-0-0-0-|--------------
-|-4-4-4-4-4-4-4-4-4-4--4--4---0-0-0-0-0-0-0-0-0-0-0-0-0-0-0-0-|--------------
-|-4-4-4-4-4-4-4-4-4-4--4--4---2-2-2-2-2-2-2-2-2-2-2-2-2-2-2-2-|--------------
-|-2-2-2-2-2-2-2-2-2-2--0--2---3-3-3-3-3-3-3-3-3-3-3-3-3-3-3-3-|--------------
 G1+G2 Forced to endure        what I could not         forgive               

-|-------------------------------------------------------------|--------------
-|-------------------------------------------------------------|--------------
-|-------------------------------------------------------------|--------------
-|-4--------------------4--4---5-5-5-5-5-5-5-5-5-5-5-5-5-5-5-5-|--------------
-|-4--------------------4--4---5-5-5-5-5-5-5-5-5-5-5-5-5-5-5-5-|--------------
-|-2--------------------0--2---3-3-3-3-3-3-3-3-3-3-3-3-3-3-3-3-|--------------
 G3                                                                           

-|-----------------------------------------------------|----------------------
-|-5-5--------5-5-5--------5-5-5--------5-5-5----------|----------------------
-|-6-6--------6-6-6--------6-6-6--------6-6-6----------|----------------------
-|-7-7--------7-7-7--------7-7-7--------7-7-7----------|----------------------
-|-x-x--------x-x-x--------x-x-x--------x-x-x----------|----------------------
-|-5-5--------5-5-5--------5-5-5--------5-5-5----------|----------------------
 G1+G3                                                                        

-|-------5---------------5-----------------------------|----------------------
-|-----------------------5-----------------------------|----------------------
-|-----------------------------------------------------|----------------------
-|-7-7-----7--7-7-7--x/----7-7-7--x/-x--7-7-7-x/-----7-|----------------------
-|-7-7--------7-7-7--x/----7-7-7--x/-x--7-7-7-x/-----7-|----------------------
-|-5-5--------5-5-5--x/----5-5-5--x/----5-5-5-x/-----5-|----------------------
 G2                                                                           

-|--------------------------------------------------------------------|-------
-|--------------------------------------------------------------------|-------
-|--------------------------------------------------------------------|-------
-|-----0----------------0----------------0----------------0-----------|-------
-|---0---0-5-7--------0---0-5-7--------0---0-5-7--------0---0-5-7-----|-------
-|-5-----------0-0--5-----------0-0--5-----------0-0--5-----------0-0-|-------
 G1+G3                                                                        

-|--------------------------------------------------------------------|-------
-|--------------------------------------------------------------------|-------
-|--------------------------------------------------------------------|-------
-|-7-7--x/-x----7-7-7------------7-7-7----x--x----7-7-7----x--x----7-|-------
-|-7-7--x/-x----7-7-7------------7-7-7----x--x----7-7-7----x--x----7-|-------
-|-5-5--x/-x----5-5-5------------5-5-5----x--x----5-5-5----x--x----5-|-------
 G2                                                                           

-|--------------------------------------------------------------------|-------
-|--------------------------------------------------------------------|-------
-|--------------------------------------------------------------------|-------
-|-----0----------------0----------------0----------------0-----------|-------
-|---0---0-5-7--------0---0-5-7--------0---0-5-7--------0---0-5-7-----|-------
-|-5-----------0-0--5-----------0-0--5-----------0-0--5-----------0-0-|-------
 G1+G3     I                seem to  look    a - way                          

-|--------------------------------------------------------------------|-------
-|--------------------------------------------------------------------|-------
-|--------------------------------------------------------------------|-------
-|-7-7----x-x----7-7-7----x--x----7-7-7----x--x----7-7-7----x--x----7-|-------
-|-7-7----x-x----7-7-7----x--x----7-7-7----x--x----7-7-7----x--x----7-|-------
-|-5-5----x-x----5-5-5----x--x----5-5-5----x--x----5-5-5----x--x----5-|-------
 G2                                                                           

-|--------------------------------------------------------------------|-------
-|--------------------------------------------------------------------|-------
-|--------------------------------------------------------------------|-------
-|-----0----------------0----------------0----------------0-----------|-------
-|---0---0-5-7--------0---0-5-7--------0---0-5-7--------0---0-5-7-----|-------
-|-5-----------0-0--5-----------0-0--5-----------0-0--5-----------0-0-|-------
 G1+G3     Wounds           in the   mirror waved                             

-|--------------------------------------------------------------------|-------
-|--------------------------------------------------------------------|-------
-|--------------------------------------------------------------------|-------
-|-7-7----x-x----7-7-7----x--x----7-7-7----x--x----7-7-7----x--x----9-|-------
-|-7-7----x-x----7-7-7----x--x----7-7-7----x--x----7-7-7----x--x----9-|-------
-|-5-5----x-x----5-5-5----x--x----5-5-5----x--x----5-5-5----x--x----7-|-------
 G2                                                                           

-|--------------------------------------------------------------------|-------
-|--------------------------------------------------------------------|-------
-|--------------------------------------------------------------------|-------
-|-----0----------------0----------------0----------------0-----------|-------
-|---0---0-7-9--------0---0-7-9--------0---0-7-9--------0---0-7-9-----|-------
-|-7-----------0-0--7-----------0-0--7-----------0-0--7-----------0-0-|-------
 G1+G3                  It wasn’t my surface                    most de-      

-|--------------------------------------------------------------------|-------
-|--------------------------------------------------------------------|-------
-|--------------------------------------------------------------------|-------
-|-9-9----x-x----9-9-9----x--x----9-9-9----x--x----9-9-9----x--x----7-|-------
-|-9-9----x-x----9-9-9----x--x----9-9-9----x--x----9-9-9----x--x----7-|-------
-|-7-7----x-x----7-7-7----x--x----7-7-7----x--x----7-7-7----x--x----5-|-------
 G2                                                                           

-|--------------------------------------------------------------------|-------
-|--------------------------------------------------------------------|-------
-|--------------------------------------------------------------------|-------
-|-----0----------------0----------------0----------------0-----------|-------
-|---0---0-5-7--------0---0-5-7--------0---0-5-7--------0---0-5-7-----|-------
-|-5-----------0-0--5-----------0-0--5-----------0-0--5-----------0-0-|-------
 G1+G3 -filed                                                                 

-|--------------------------------------------------------------------|-------
-|--------------------------------------------------------------------|-------
-|--------------------------------------------------------------------|-------
-|-7-7----x-x----7-7-7----x--x----7-7-7----x--x----7-7-7--------------|-------
-|-7-7----x-x----7-7-7----x--x----7-7-7----x--x----7-7-7--------------|-------
-|-5-5----x-x----5-5-5----x--x----5-5-5----x--x----5-5-5--------------|-------
 G2                                                                           

-|-------------------------------------------------------------|--------------
-|-------------------------------------------------------------|--------------
-|-------------------------------------------------------------|--------------
-|-9-9-9-9-9-9-9-9-9-9-9-9-9-11---5-5-5-5-5-5-5-5-5-5-5-5-5-7--|--------------
-|-9-9-9-9-9-9-9-9-9-9-9-9-9-11---5-5-5-5-5-5-5-5-5-5-5-5-5-7--|--------------
-|-7-7-7-7-7-7-7-7-7-7-7-7-7--9---3-3-3-3-3-3-3-3-3-3-3-3-3-5--|--------------
 G1+G2 Head at your feet          fool to your crown                          

-|-------------------------------------------------------------|--------------
-|-------------------------------------------------------------|--------------
-|-------------------------------------------------------------|--------------
-|-9-9---------------------9-11---5-5---------------------5-7--|--------------
-|-9-9---------------------9-11---5-5---------------------5-7--|--------------
-|-7-7---------------------7-9----3-3---------------------3-5--|--------------
 G3                                                                           

-|----------------------------3------------------3-3---3-------|--------------
-|----------------------------3------------------3-3---3-------|--------------
-|----------------------------0------------------0-0---0-------|--------------
-|-4-4-4-4-4-4-4-4-4-4--4--4--0------------------0-0---0-------|--------------
-|-4-4-4-4-4-4-4-4-4-4--4--4--2------------------2-2---2-------|--------------
-|-2-2-2-2-2-2-2-2-2-2--0--2--3------------------3-3---3-------|--------------
 G1+G2 Fist on my plate       swallowed it down                               

-|-------------------------------------------------------------|--------------
-|-------------------------------------------------------------|--------------
-|-------------------------------------------------------------|--------------
-|-4--------------------4--4---5-5-5-5-5-5-5-5-5-5-5-5-5-5-5-5-|--------------
-|-4--------------------4--4---5-5-5-5-5-5-5-5-5-5-5-5-5-5-5-5-|--------------
-|-2--------------------0--2---3-3-3-3-3-3-3-3-3-3-3-3-3-3-3-3-|--------------
 G3                                                                           

-|-------------------------------------------------------------|--------------
-|-------------------------------------------------------------|--------------
-|-------------------------------------------------------------|--------------
-|-9-9-9-9-9-9-9-9-9-9-9-9-9-11---5-5-5-5-5-5-5-5-5-5-5-5-5-7--|--------------
-|-9-9-9-9-9-9-9-9-9-9-9-9-9-11---5-5-5-5-5-5-5-5-5-5-5-5-5-7--|--------------
-|-7-7-7-7-7-7-7-7-7-7-7-7-7--9---3-3-3-3-3-3-3-3-3-3-3-3-3-5--|--------------
 G1+G2 Enmity gauged              united by fear                              

-|---------12-14----------12-14----------12-14-----------------|--------------
-|-12--12---------12--12---------12--12---------12--12--12-14--|--------------
-|-------------------------------------------------------------|--------------
-|-------------------------------------------------------------|--------------
-|-------------------------------------------------------------|--------------
-|-------------------------------------------------------------|--------------
 G3                                                                           

-|----------------------------3--------------------------------|--------------
-|----------------------------3--------------------------------|--------------
-|----------------------------0--------------------------------|--------------
-|-4-4-4-4-4-4-4-4-4-4--4--4--0--------------------------------|--------------
-|-4-4-4-4-4-4-4-4-4-4--4--4--2--------------------------------|--------------
-|-2-2-2-2-2-2-2-2-2-2--0--2--3--------------------------------|--------------
 G1+G2 Tried to endure        what I could not             for-               

-|-------------------------------------------------------------|--------------
-|-14b15---r14---------12-14--14b15--r14------------------14--|--------------
-|-------------------------------------------------------------|--------------
-|-------------------------------------------------------------|--------------
-|-------------------------------------------------------------|--------------
-|-------------------------------------------------------------|--------------
 G3                                                                           

-|--5---------------------------------------------------------|---------------
-|--5---------------------------------------------------------|---------------
-|--6---------------------------------------------------------|---------------
-|--7---------------------------------------------------------|---------------
-|--7---------------------------------------------------------|---------------
-|--5---------5-5-5-5-5-5-5-5-5-5-5-5-5-5-5-5-5-5-5-5-5-5-5-5-|---------------
 G1 -give                                                                     

-|--------5---------------------------------------------------|---------------
-|--------5---------------------------------------------------|---------------
-|--------6-----------------------------------------------6-6-|---------------
-|--7-----------------------------------------------------7---|---------------
-|--7---------------------------------------------------------|---------------
-|--5---------------------------------------------------------|---------------
 G2                                                                           

-|------------------------------------------------------------|---------------
-|--7-------------------------7/10----------------------------|---------------
-|------------------------------------------------------------|---------------
-|------------------------------------------------------------|---------------
-|------------------------------------------------------------|---------------
-|------------------------------------------------------------|---------------
 G3                                                                           

-|-----------------------------------------------------------------|----------
-|-----------------------------------------------------------------|----------
-|-----------------------------------------------------------------|----------
-|-----------------------------------------------------------------|----------
-|-----------------------------------------------------------------|----------
-|-5-5-5-5-5-5-5-5-5-5-5-5-5-5-5-5-5-5-5-5-5-5-5-5-5-5-5-5-5-5-5-5-|----------
 G1                                                                           

-|-----------------------------------------------------------------|----------
-|--------------------------------5--------------------------------|----------
-|-7p6----------------------------6--------------------------------|----------
-|-------7------------------------7--------------------------------|----------
-|-----------------------------------------------------------------|----------
-|-----------------------------------------------------------------|----------
 G2                                                                           

-|-----------------------------------------------------------------|----------
-|-----------------------------------------------------------------|----------
-|---------------------7-------------------------------------------|----------
-|-7--------------------------5-/-9----------7-------------------|----------
-|-x---------------------------------------------------------------|----------
-|-5--------------------------3-/-7----------5-------------------|----------
 G3                                                                           

-|-----------------------------------------------------------------|----------
-|-----------------------------------------------------------------|----------
-|-----------------------------------------------------------------|----------
-|-----------------------------------------------------------------|----------
-|-----------------------------------------------------------------|----------
-|-5-5-5-5-5-5-5-5-5-5-5-5-5-5-5-5-5-5-5-5-5-5-5-5-5-5-5-5-5-5-5-5-|----------
 G1                                                                           

-|-----------------------------------------------------------------|----------
-|-----------------------------------------------------------------|----------
-|-----------------------------------------------------------------|----------
-|-------------------------------------9----------7----------------|----------
-|-----------------------------------------------------------------|----------
-|-----------------------------------------------------------------|----------
 G2                                                                           

-|-----------------------------------------------------------------|----------
-|-----------------------------------------------------------------|----------
-|-----------------------------------------------------------------|----------
-|-7--------------------------5-/-9----------7-------------------|----------
-|-x---------------------------------------------------------------|----------
-|-5--------------------------3-/-7----------5-------------------|----------
 G3                                                                           

-|-----------------------------------------------------------------|----------
-|-----------------------------------------------------------------|----------
-|-----------------------------------------------------------------|----------
-|-----------------------------------------------------------------|----------
-|-----------------------------------------------------------------|----------
-|-5-5-5-5-5-5-5-5-5-5-5-5-5-5-5-5-5-5-5-5-5-5-5-5-5-5-5-5-5-5-5-5-|----------
 G1                                                                           

-|-----------------------------------------------------------------|----------
-|-----------------------------------------------------------------|----------
-|-----------------------------------------------------------------|----------
-|-----------------------------------------------------------------|----------
-|-----------------------------------------------------------------|----------
-|-----------------------------------------------------------------|----------
 G2 (feedback)                                                                

-|-----------------------------------------------------------------|----------
-|-----------------------------------------------------------------|----------
-|-----------------------------------------------------------------|----------
-|-7/9---7--------------------------------------------------------|----------
-|-x---------------7-----------------------------------------------|----------
-|-5/7---5--------------------------------------------------------|----------
 G3                                                                           

-|-----------------------------------------------------------------|----------
-|-----------------------------------------------------------------|----------
-|-----------------------------------------------------------------|----------
-|-----------------------------------------------------7-7-7-7-7-7-|----------
-|---------------------------------------------------7-7-7-7-7-7-7-|----------
-|-5-5-5-5-5-5-5-5-5-5-5-5-5-5-5-5-5-5-5-5-5-5-5-5-5-5-5-5-5-5-5-5-|----------
 G1                                                                           

-|-----------------------------------------------------------------|----------
-|-----------------------------------------------------------------|----------
-|-----------------------------------------------------------------|----------
-|-----------------------------------------------------------------|----------
-|-----------------------------------------------------------------|----------
-|-----------------------------------------------------------------|----------
 G2 (more feedback)                                                           

-|-----------------------------------------------------------------|----------
-|-----------------------------------------------------------------|----------
-|-----------------------------------------------------------------|----------
-|-----------------------------------------------------------------|----------
-|---7----7-------7---------------------/97-----------------------|----------
-|-----------------------------------------------------------------|----------
 G3                                                                           

-|-----------------------------------------------------------------|----------
-|-----------------------------------------------------------------|----------
-|-----------------------------------------------------------------|----------
-|-9-9-9-9-9-9-9-9-9-9-9-9-9-9-9-9-9-9-9-9-9-9-9-9-9-9-9-9-9-9-9-9-|----------
-|-9-9-9-9-9-9-9-9-9-9-9-9-9-9-9-9-9-9-9-9-9-9-9-9-9-9-9-9-9-9-9-9-|----------
-|-7-7-7-7-7-7-7-7-7-7-7-7-7-7-7-7-7-7-7-7-7-7-7-7-7-7-7-7-7-7-7-7-|----------
 G1,G2,G3 Saw things               saw things                                 

-|-----------------------------------------------------------------|----------
-|-----------------------------------------------------------------|----------
-|-----------------------------------------------------------------|----------
-|-7-7-7-7-7-7-7-7-7-7-7-7-7-7-7-7-7-7-7-7-7-7-7-7-7-7-7-7-7-7-7-7-|----------
-|-7-7-7-7-7-7-7-7-7-7-7-7-7-7-7-7-7-7-7-7-7-7-7-7-7-7-7-7-7-7-7-7-|----------
-|-5-5-5-5-5-5-5-5-5-5-5-5-5-5-5-5-5-5-5-5-5-5-5-5-5-5-5-5-5-5-5-5-|----------
 G1,G2,G3 Saw things               saw things                                 

-|-----------------------------------------------------------------|----------
-|-----------------------------------------------------------------|----------
-|-----------------------------------------------------------------|----------
-|-9-9-9-9-9-9-9-9-9-9-9-9-9-9-9-9-9-9-9-9-9-9-9-9-9-9-9-9-9-9-9-9-|----------
-|-9-9-9-9-9-9-9-9-9-9-9-9-9-9-9-9-9-9-9-9-9-9-9-9-9-9-9-9-9-9-9-9-|----------
-|-7-7-7-7-7-7-7-7-7-7-7-7-7-7-7-7-7-7-7-7-7-7-7-7-7-7-7-7-7-7-7-7-|----------
 G1,G2,G3 Clearer                  clearer                                    

-|-----------------------------------------------------------------|----------
-|-----------------------------------------------------------------|----------
-|-----------------------------------------------------------------|----------
-|-7-7-7-7-7-7-7-7-7-7-7-7-7-7-7-7-7-7-7-7-7-7-7-7-7-7-7-7-7-7-7-7-|----------
-|-7-7-7-7-7-7-7-7-7-7-7-7-7-7-7-7-7-7-7-7-7-7-7-7-7-7-7-7-7-7-7-7-|----------
-|-5-5-5-5-5-5-5-5-5-5-5-5-5-5-5-5-5-5-5-5-5-5-5-5-5-5-5-5-5-5-5-5-|----------
 G1,G2,G3 Once you            were in my                 rearview-            

-|-------------------------------------------------------------|--------------
-|-------------------------------------------------------------|--------------
-|-------------------------------------------------------------|--------------
-|-9-9-9-9-9-9-9-9-9-9-9-9-9-11---5-5-5-5-5-5-5-5-5-5-5-5-5-7--|--------------
-|-9-9-9-9-9-9-9-9-9-9-9-9-9-11---5-5-5-5-5-5-5-5-5-5-5-5-5-7--|--------------
-|-7-7-7-7-7-7-7-7-7-7-7-7-7--9---3-3-3-3-3-3-3-3-3-3-3-3-3-5--|--------------
 G1+G2 Mirror                                                                 

-|---------12-14----------12-14----------12-14-----------------|--------------
-|-12--12---------12--12---------12--12---------12--12--12-14--|--------------
-|-------------------------------------------------------------|--------------
-|-------------------------------------------------------------|--------------
-|-------------------------------------------------------------|--------------
-|-------------------------------------------------------------|--------------
 G3                                                                           

-|----------------------------3-3-3-3-3-3-3-3-3-3-3-3-3-3-3-3--|--------------
-|----------------------------3-3-3-3-3-3-3-3-3-3-3-3-3-3-3-3--|--------------
-|----------------------------0-0-0-0-0-0-0-0-0-0-0-0-0-0-0-0--|--------------
-|-4-4-4-4-4-4-4-4-4-4--4--4--0-0-0-0-0-0-0-0-0-0-0-0-0-0-0-0--|--------------
-|-4-4-4-4-4-4-4-4-4-4--4--4--2-2-2-2-2-2-2-2-2-2-2-2-2-2-2-2--|--------------
-|-2-2-2-2-2-2-2-2-2-2--0--2--3-3-3-3-3-3-3-3-3-3-3-3-3-3-3-3--|--------------
 G1+G2 I gather speed   from you fucking with me                              

-|-------------------------------------------------------------|--------------
-|-14b15---r14---------12-14--14b15--r14-----------------------|--------------
-|-------------------------------------------------------------|--------------
-|-------------------------------------------------------------|--------------
-|-------------------------------------------------------------|--------------
-|-------------------------------------------------------------|--------------
 G3                                                                           

-|-------------------------------------------------------------|--------------
-|-------------------------------------------------------------|--------------
-|-------------------------------------------------------------|--------------
-|-9-9-9-9-9-9-9-9-9-9-9-9-9-11---5-5-5-5-5-5-5-5-5-5-5-5-5-7--|--------------
-|-9-9-9-9-9-9-9-9-9-9-9-9-9-11---5-5-5-5-5-5-5-5-5-5-5-5-5-7--|--------------
-|-7-7-7-7-7-7-7-7-7-7-7-7-7--9---3-3-3-3-3-3-3-3-3-3-3-3-3-5--|--------------
 G1+G2 Once and for all           I’m far away                                

-|---------12-14----------12-14----------12-14-----------------|--------------
-|-12--12---------12--12---------12--12---------12--12--12-14--|--------------
-|-------------------------------------------------------------|--------------
-|-------------------------------------------------------------|--------------
-|-------------------------------------------------------------|--------------
-|-------------------------------------------------------------|--------------
 G3                                                                           

-|----------------------------3-3-3-3-3-3-3-3-3-3-3-3-3-3-3-3--|--------------
-|----------------------------3-3-3-3-3-3-3-3-3-3-3-3-3-3-3-3--|--------------
-|----------------------------0-0-0-0-0-0-0-0-0-0-0-0-0-0-0-0--|--------------
-|-4-4-4-4-4-4-4-4-4-4--4--4--0-0-0-0-0-0-0-0-0-0-0-0-0-0-0-0--|--------------
-|-4-4-4-4-4-4-4-4-4-4--4--4--2-2-2-2-2-2-2-2-2-2-2-2-2-2-2-2--|--------------
-|-2-2-2-2-2-2-2-2-2-2--0--2--3-3-3-3-3-3-3-3-3-3-3-3-3-3-3-3--|--------------
 G1+G2 Hardly believe         finally the shades           are                

-|-------------------------------------------------------------|--------------
-|-14b15---r14---------12-14--14b15--r14----------12--12-14-12-|--------------
-|-------------------------------------------------------------|--------------
-|-------------------------------------------------------------|--------------
-|-------------------------------------------------------------|--------------
-|-------------------------------------------------------------|--------------
 G3                                                                           

-|------------------------------------------------------------------|---------
-|------------------------------------------------------------------|---------
-|------------------------------------------------------------------|---------
-|-9-9-9-9-9-9-9-9-9-9-9-9-9-9-9-9--7-7-7-7-7-7-7-7-7-7-7-7-7-7-7-7-|---------
-|-9-9-9-9-9-9-9-9-9-9-9-9-9-9-9-9--7-7-7-7-7-7-7-7-7-7-7-7-7-7-7-7-|---------
-|-7-7-7-7-7-7-7-7-7-7-7-7-7-7-7-7--5-5-5-5-5-5-5-5-5-5-5-5-5-5-5-5-|---------
 G1+G2 Raised                                                                 

-|-14b15--14------------12-14-12-12-14b15--14-----------12-14-12----|---------
-|---------------------------------------------------------------12-|---------
-|------------------------------------------------------------------|---------
-|------------------------------------------------------------------|---------
-|------------------------------------------------------------------|---------
-|------------------------------------------------------------------|---------
 G3                                                                           

-|------------------------------------------------------------------|---------
-|------------------------------------------------------------------|---------
-|------------------------------------------------------------------|---------
-|-9-9-9-9-9-9-9-9-9-9-9-9-9-9-9-9--7-7-7-7-7-7-7-7-7-7-7-7-7-7-7-7-|---------
-|-9-9-9-9-9-9-9-9-9-9-9-9-9-9-9-9--7-7-7-7-7-7-7-7-7-7-7-7-7-7-7-7-|---------
-|-7-7-7-7-7-7-7-7-7-7-7-7-7-7-7-7--5-5-5-5-5-5-5-5-5-5-5-5-5-5-5-5-|---------
 G1+G2 Hey                    hey                yeah                         

-|-14b15--14------------------14-14-14b15--14-----------------------|---------
-|------------------------------------------------------------------|---------
-|------------------------------------------------------------------|---------
-|------------------------------------------------------------------|---------
-|------------------------------------------------------------------|---------
-|------------------------------------------------------------------|---------
 G3                                                                           

-|------------------------------------------------------------------|---------
-|------------------------------------------------------------------|---------
-|------------------------------------------------------------------|---------
-|-9-9-9-9-9-9-9-9-9-9-9-9-9-9-9-9--7-7-7-7-7-7-7-7-7-7-7-7-7-7-7-7-|---------
-|-9-9-9-9-9-9-9-9-9-9-9-9-9-9-9-9--7-7-7-7-7-7-7-7-7-7-7-7-7-7-7-7-|---------
-|-7-7-7-7-7-7-7-7-7-7-7-7-7-7-7-7--5-5-5-5-5-5-5-5-5-5-5-5-5-5-5-5-|---------
 G1+G2 Saw things so much clearer   once you,   once you   Rearviewmirror     

-|-19b21--19------------------------19b21--19----19b21-19b21--19----|---------
-|------------------------------------------------------------------|---------
-|------------------------------------------------------------------|---------
-|------------------------------------------------------------------|---------
-|------------------------------------------------------------------|---------
-|------------------------------------------------------------------|---------
 G3                                                                           

-|------------------------------------------------------------------|---------
-|------------------------------------------------------------------|---------
-|------------------------------------------------------------------|---------
-|-9-9-9-9-9-9-9-9-9-9-9-9-9-9-9-9--7-7-7-7-7-7-7-7-7-7-7-7-7-7-7-7-|---------
-|-9-9-9-9-9-9-9-9-9-9-9-9-9-9-9-9--7-7-7-7-7-7-7-7-7-7-7-7-7-7-7-7-|---------
-|-7-7-7-7-7-7-7-7-7-7-7-7-7-7-7-7--5-5-5-5-5-5-5-5-5-5-5-5-5-5-5-5-|---------
 G1+G2 Saw things so much clearer   once you,   once you   Rearviewmirror     

-|-19b21--19-------19b21--19--------19b21--19---19b21--19-----------|---------
-|------------------------------------------------------------------|---------
-|------------------------------------------------------------------|---------
-|------------------------------------------------------------------|---------
-|------------------------------------------------------------------|---------
-|------------------------------------------------------------------|---------
 G3                                                                           

-|------------------------------------------------------------------|---------
-|------------------------------------------------------------------|---------
-|------------------------------------------------------------------|---------
-|-9-9-9-9-9-9-9-9-9-9-9-9-9-9-9-9--7-7-7-7-7-7-7-7-7-7-7-7-7-7-7-7-|---------
-|-9-9-9-9-9-9-9-9-9-9-9-9-9-9-9-9--7-7-7-7-7-7-7-7-7-7-7-7-7-7-7-7-|---------
-|-7-7-7-7-7-7-7-7-7-7-7-7-7-7-7-7--5-5-5-5-5-5-5-5-5-5-5-5-5-5-5-5-|---------
 G1+G2 Saw things so much clearer   once you,   once you   Rearviewmirror     

-|-19b21--19-------19b21--19----------------------------------------|---------
-|------------------------------------------------------------------|---------
-|------------------------------------------------------------------|---------
-|------------------------------------------------------------------|---------
-|------------------------------------------------------------------|---------
-|------------------------------------------------------------------|---------
 G3                                                                           

-|------------------------------------------------------------------|---------
-|------------------------------------------------------------------|---------
-|------------------------------------------------------------------|---------
-|-9-9-9-9-9-9-9-9-9-9-9-9-9-9-9-9--7-7-7-7-7-7-7-7-7-7-7-7-7-7-7-7-|---------
-|-9-9-9-9-9-9-9-9-9-9-9-9-9-9-9-9--7-7-7-7-7-7-7-7-7-7-7-7-7-7-7-7-|---------
-|-7-7-7-7-7-7-7-7-7-7-7-7-7-7-7-7--5-5-5-5-5-5-5-5-5-5-5-5-5-5-5-5-|---------
 G1+G2 Saw things so much clearer   once you             oh yeah              

-|---------------------------------14b15-14-12-12-14-12-12-14-12-12-|---------
-|------------------------------------------------------------------|---------
-|------------------------------------------------------------------|---------
-|------------------------------------------------------------------|---------
-|------------------------------------------------------------------|---------
-|------------------------------------------------------------------|---------
 G3                                                                           

-|------------------------------------------------------------------|---------
-|------------------------------------------------------------------|---------
-|------------------------------------------------------------------|---------
-|-9-9-9-9-9-9-9-9-9-9-9-9-9-9-9-9--7-7-7-7-7-7-7-7-7-7-7-7-7-7-7-7-|---------
-|-9-9-9-9-9-9-9-9-9-9-9-9-9-9-9-9--7-7-7-7-7-7-7-7-7-7-7-7-7-7-7-7-|---------
-|-7-7-7-7-7-7-7-7-7-7-7-7-7-7-7-7--5-5-5-5-5-5-5-5-5-5-5-5-5-5-5-5-|---------
 G1+G2                                                                        

-|-14p12h14*------------------------14b15-14------------------------|---------
-|-------------12------14---14-12-----------------------------------|---------
-|------------------------------------------------------------------|---------
-|------------------------------------------------------------------|---------
-|------------------------------------------------------------------|---------
-|------------------------------------------------------------------|---------
 G3    *trill                                                                 

-|------------------------------------------------------------------|---------
-|------------------------------------------------------------------|---------
-|------------------------------------------------------------------|---------
-|-9-9-9-9-9-9-9-9-9-9-9-9-9-9-9-9--7-7-7-7-7-7-7-7-7-7-7-7-7-7-7-7-|---------
-|-9-9-9-9-9-9-9-9-9-9-9-9-9-9-9-9--7-7-7-7-7-7-7-7-7-7-7-7-7-7-7-7-|---------
-|-7-7-7-7-7-7-7-7-7-7-7-7-7-7-7-7--5-5-5-5-5-5-5-5-5-5-5-5-5-5-5-5-|---------
 G1+G2                                                                        

-|-----------------19---------19b21-19b21r19------------------------|---------
-|----------17-17------------------------------------------12-14-12-|---------
-|-16-16-16---------------------------------------------------------|---------
-|------------------------------------------------------------------|---------
-|------------------------------------------------------------------|---------
-|------------------------------------------------------------------|---------
 G3                                                                           

-|------------------------------------------------------------------|---------
-|------------------------------------------------------------------|---------
-|------------------------------------------------------------------|---------
-|-9-9-9-9-9-9-9-9-9-9-9-9-9-9-9-9--7-7-7-7-7-7-7-7-7-7-7-7-7-7-7-7-|---------
-|-9-9-9-9-9-9-9-9-9-9-9-9-9-9-9-9--7-7-7-7-7-7-7-7-7-7-7-7-7-7-7-7-|---------
-|-7-7-7-7-7-7-7-7-7-7-7-7-7-7-7-7--5-5-5-5-5-5-5-5-5-5-5-5-5-5-5-5-|---------
 G1+G2                                                                        

-|-14b16--14------12------------------------------------------------|---------
-|---------------------14---12-----14b16r14----12-14-12vvv-12-14-12-|---------
-|------------------------------------------------------------------|---------
-|------------------------------------------------------------------|---------
-|------------------------------------------------------------------|---------
-|------------------------------------------------------------------|---------
 G3                                                                           

-|------------------------------------------------------------------|---------
-|------------------------------------------------------------------|---------
-|------------------------------------------------------------------|---------
-|-9-9-9-9-9-9-9-9-9-9-9-9-9-9-9-9--7-7-7-7-7-7-7-7-7-7-7-7-7-7-7-7-|---------
-|-9-9-9-9-9-9-9-9-9-9-9-9-9-9-9-9--7-7-7-7-7-7-7-7-7-7-7-7-7-7-7-7-|---------
-|-7-7-7-7-7-7-7-7-7-7-7-7-7-7-7-7--5-5-5-5-5-5-5-5-5-5-5-5-5-5-5-5-|---------
 G1+G2                                                                        

-|-14b16r14----19*------------------19b21r19----19b21-19b21r19------|---------
-|--------------/---------------------------------------------------|---------
-|--------------/---------------------------------------------------|---------
-|--------------/---------------------------------------------------|---------
-|------------------------------------------------------------------|---------
-|------------------------------------------------------------------|---------
 G3              *tremolo pick                                                

-|----------------------------------||----------------------------------------
-|----------------------------------||----------------------------------------
-|----------------------------------||----------------------------------------
-|-9-9--------------------------9--||----------------------------------------
-|-9-9--------------------------9--||----------------------------------------
-|-7-7--------------------------7--||----------------------------------------
 G1                                                                           

-|----------------------7vvv--------||----------------------------------------
-|----------------------------------||----------------------------------------
-|----------------9-----------------||----------------------------------------
-|-9-9------------------------------||----------------------------------------
-|-9-9------------------------------||----------------------------------------
-|-7-7------------------------------||----------------------------------------
 G2                                                                           

-|-19b21r19-------------------------||----------------------------------------
-|----------------------------------||----------------------------------------
-|----------------------------------||----------------------------------------
-|----------------------------------||----------------------------------------
-|----------------------------------||----------------------------------------
-|----------------------------------||----------------------------------------
 G3                                                                           

Guitar 1 = Ed Vedder (Telecaster)
Guitar 2 = Stone Gossard (Les Paul)
Guitar 3 = Mike McCready (Stratocaster)

Mike’s outro solo is really hard to hear, I probably missed a few notes

-|--------------------------------------------------------------------|-------
-|--------------------------------------------------------------------|-------
-|--------------------------------------------------------------------|-------
-|-----0----------------0----------------0----------------0-----------|-------
-|---0---0-5-7--------0---0-5-7--------0---0-5-7--------0---0-5-7-----|-------
-|-5-----------0-0--5-----------0-0--5-----------0-0--5-----------0-0-|-------
 G1                                                                           

-|--------------------------------------------------------------------|-------
-|--------------------------------------------------------------------|-------
-|--------------------------------------------------------------------|-------
-|-----0----------------0----------------0----------------0-----------|-------
-|---0---0-5-7--------0---0-5-7--------0---0-5-7--------0---0-5-7-----|-------
-|-5-----------0-0--5-----------0-0--5-----------0-0--5-----------0-0-|-------
 G1,G2,G3                                                                     

-|--------------------------------------------------------------------|-------
-|--------------------------------------------------------------------|-------
-|--------------------------------------------------------------------|-------
-|-----0----------------0----------------0----------------0-----------|-------
-|---0---0-5-7--------0---0-5-7--------0---0-5-7--------0---0-5-7-----|-------
-|-5-----------0-0--5-----------0-0--5-----------0-0--5-----------0-0-|-------
 G1,G2,G3  I                took a   drive today                              

-|--------------------------------------------------------------------|-------
-|--------------------------------------------------------------------|-------
-|--------------------------------------------------------------------|-------
-|-----0----------------0----------------0----------------0-----------|-------
-|---0---0-5-7--------0---0-5-7--------0---0-5-7--------0---0-5-7-----|-------
-|-5-----------0-0--5-----------0-0--5-----------0-0--5-----------0-0-|-------
 G1,G2,G3  Time             to e  -  man  -  ci  -  pate                      

-|--------------------------------------------------------------------|-------
-|--------------------------------------------------------------------|-------
-|--------------------------------------------------------------------|-------
-|-----0----------------0----------------0----------------0-----------|-------
-|---0---0-7-9--------0---0-7-9--------0---0-7-9--------0---0-7-9-----|-------
-|-7-----------0-0--7-----------0-0--7-----------0-0--7-----------0-0-|-------
 G1,G2,G3              I guess it was the beatings             made me        

-|--------------------------------------------------------------------|-------
-|--------------------------------------------------------------------|-------
-|--------------------------------------------------------------------|-------
-|-----0----------------0----------------0----------------0-----------|-------
-|---0---0-5-7--------0---0-5-7--------0---0-5-7--------0---0-5-7-----|-------
-|-5-----------0-0--5-----------0-0--5-----------0-0--5-----------0-0-|-------
 G1,G2,G3 Wise                                                   but I’m      

-|--------------------------------------------------------------------|-------
-|--------------------------------------------------------------------|-------
-|--------------------------------------------------------------------|-------
-|-----0----------------0----------------0----------------0-----------|-------
-|---0---0-7-9--------0---0-7-9--------0---0-7-9--------0---0-7-9-----|-------
-|-7-----------0-0--7-----------0-0--7-----------0-0--7-----------0-0-|-------
 G1,G2,G3           Not about to give thanks                    or apolo-     

-|--------------------------------------------------------------------|-------
-|--------------------------------------------------------------------|-------
-|--------------------------------------------------------------------|-------
-|-----0----------------0----------------0----------------0-----------|-------
-|---0---0-5-7--------0---0-5-7--------0---0-5-7--------0---0-5-7-----|-------
-|-5-----------0-0--5-----------0-0--5-----------0-0--5-----------0-0-|-------
 G1,G2,G3                         -gize                                       

-|-------------------------------------------------------------|--------------
-|-------------------------------------------------------------|--------------
-|-------------------------------------------------------------|--------------
-|-9-9-9-9-9-9-9-9-9-9-9-9-9-11---5-5-5-5-5-5-5-5-5-5-5-5-5-7--|--------------
-|-9-9-9-9-9-9-9-9-9-9-9-9-9-11---5-5-5-5-5-5-5-5-5-5-5-5-5-7--|--------------
-|-7-7-7-7-7-7-7-7-7-7-7-7-7--9---3-3-3-3-3-3-3-3-3-3-3-3-3-5--|--------------
 G1+G2 I couldn’t breathe         holding me down                             

-|-------------------------------------------------------------|--------------
-|-------------------------------------------------------------|--------------
-|-------------------------------------------------------------|--------------
-|-9-9---------------------9-11---5-5---------------------5-7--|--------------
-|-9-9---------------------9-11---5-5---------------------5-7--|--------------
-|-7-7---------------------7-9----3-3---------------------3-5--|--------------
 G3                                                                           

-|-----------------------------3-----------------3-3---3-------|--------------
-|-----------------------------3-----------------3-3---3-------|--------------
-|-----------------------------0-----------------0-0---0-------|--------------
-|-4-4-4-4-4-4-4-4-4-4--4--4---0-----------------0-0---0-------|--------------
-|-4-4-4-4-4-4-4-4-4-4--4--4---2-----------------2-2---2-------|--------------
-|-2-2-2-2-2-2-2-2-2-2--0--2---3-----------------3-3---3-------|--------------
 G1+G2 Hand on my face         pushed to the ground                           

-|-------------------------------------------------------------|--------------
-|-------------------------------------------------------------|--------------
-|-------------------------------------------------------------|--------------
-|-4--------------------4--4---5-5-5-5-5-5-5-5-5-5-5-5-5-5-5-5-|--------------
-|-4--------------------4--4---5-5-5-5-5-5-5-5-5-5-5-5-5-5-5-5-|--------------
-|-2--------------------0--2---3-3-3-3-3-3-3-3-3-3-3-3-3-3-3-3-|--------------
 G3                                                                           

-|-------------------------------------------------------------|--------------
-|-------------------------------------------------------------|--------------
-|-------------------------------------------------------------|--------------
-|-9-9-9-9-9-9-9-9-9-9-9-9-9-11---5-5-5-5-5-5-5-5-5-5-5-5-5-7--|--------------
-|-9-9-9-9-9-9-9-9-9-9-9-9-9-11---5-5-5-5-5-5-5-5-5-5-5-5-5-7--|--------------
-|-7-7-7-7-7-7-7-7-7-7-7-7-7--9---3-3-3-3-3-3-3-3-3-3-3-3-3-5--|--------------
 G1+G2 Enmity gauged              united by fear                              

-|-------------------------------------------------------------|--------------
-|-------------------------------------------------------------|--------------
-|-------------------------------------------------------------|--------------
-|-9-9---------------------9-11---5-5---------------------5-7--|--------------
-|-9-9---------------------9-11---5-5---------------------5-7--|--------------
-|-7-7---------------------7-9----3-3---------------------3-5--|--------------
 G3                                                                           

-|-----------------------------3-3-3-3-3-3-3-3-3-3-3-3-3-3-3-3-|--------------
-|-----------------------------3-3-3-3-3-3-3-3-3-3-3-3-3-3-3-3-|--------------
-|-----------------------------0-0-0-0-0-0-0-0-0-0-0-0-0-0-0-0-|--------------
-|-4-4-4-4-4-4-4-4-4-4--4--4---0-0-0-0-0-0-0-0-0-0-0-0-0-0-0-0-|--------------
-|-4-4-4-4-4-4-4-4-4-4--4--4---2-2-2-2-2-2-2-2-2-2-2-2-2-2-2-2-|--------------
-|-2-2-2-2-2-2-2-2-2-2--0--2---3-3-3-3-3-3-3-3-3-3-3-3-3-3-3-3-|--------------
 G1+G2 Forced to endure        what I could not         forgive               

-|-------------------------------------------------------------|--------------
-|-------------------------------------------------------------|--------------
-|-------------------------------------------------------------|--------------
-|-4--------------------4--4---5-5-5-5-5-5-5-5-5-5-5-5-5-5-5-5-|--------------
-|-4--------------------4--4---5-5-5-5-5-5-5-5-5-5-5-5-5-5-5-5-|--------------
-|-2--------------------0--2---3-3-3-3-3-3-3-3-3-3-3-3-3-3-3-3-|--------------
 G3                                                                           

-|-----------------------------------------------------|----------------------
-|-5-5--------5-5-5--------5-5-5--------5-5-5----------|----------------------
-|-6-6--------6-6-6--------6-6-6--------6-6-6----------|----------------------
-|-7-7--------7-7-7--------7-7-7--------7-7-7----------|----------------------
-|-x-x--------x-x-x--------x-x-x--------x-x-x----------|----------------------
-|-5-5--------5-5-5--------5-5-5--------5-5-5----------|----------------------
 G1+G3                                                                        

-|-------5---------------5-----------------------------|----------------------
-|-----------------------5-----------------------------|----------------------
-|-----------------------------------------------------|----------------------
-|-7-7-----7--7-7-7--x/----7-7-7--x/-x--7-7-7-x/-----7-|----------------------
-|-7-7--------7-7-7--x/----7-7-7--x/-x--7-7-7-x/-----7-|----------------------
-|-5-5--------5-5-5--x/----5-5-5--x/----5-5-5-x/-----5-|----------------------
 G2                                                                           

-|--------------------------------------------------------------------|-------
-|--------------------------------------------------------------------|-------
-|--------------------------------------------------------------------|-------
-|-----0----------------0----------------0----------------0-----------|-------
-|---0---0-5-7--------0---0-5-7--------0---0-5-7--------0---0-5-7-----|-------
-|-5-----------0-0--5-----------0-0--5-----------0-0--5-----------0-0-|-------
 G1+G3                                                                        

-|--------------------------------------------------------------------|-------
-|--------------------------------------------------------------------|-------
-|--------------------------------------------------------------------|-------
-|-7-7--x/-x----7-7-7------------7-7-7----x--x----7-7-7----x--x----7-|-------
-|-7-7--x/-x----7-7-7------------7-7-7----x--x----7-7-7----x--x----7-|-------
-|-5-5--x/-x----5-5-5------------5-5-5----x--x----5-5-5----x--x----5-|-------
 G2                                                                           

-|--------------------------------------------------------------------|-------
-|--------------------------------------------------------------------|-------
-|--------------------------------------------------------------------|-------
-|-----0----------------0----------------0----------------0-----------|-------
-|---0---0-5-7--------0---0-5-7--------0---0-5-7--------0---0-5-7-----|-------
-|-5-----------0-0--5-----------0-0--5-----------0-0--5-----------0-0-|-------
 G1+G3     I                seem to  look    a - way                          

-|--------------------------------------------------------------------|-------
-|--------------------------------------------------------------------|-------
-|--------------------------------------------------------------------|-------
-|-7-7----x-x----7-7-7----x--x----7-7-7----x--x----7-7-7----x--x----7-|-------
-|-7-7----x-x----7-7-7----x--x----7-7-7----x--x----7-7-7----x--x----7-|-------
-|-5-5----x-x----5-5-5----x--x----5-5-5----x--x----5-5-5----x--x----5-|-------
 G2                                                                           

-|--------------------------------------------------------------------|-------
-|--------------------------------------------------------------------|-------
-|--------------------------------------------------------------------|-------
-|-----0----------------0----------------0----------------0-----------|-------
-|---0---0-5-7--------0---0-5-7--------0---0-5-7--------0---0-5-7-----|-------
-|-5-----------0-0--5-----------0-0--5-----------0-0--5-----------0-0-|-------
 G1+G3     Wounds           in the   mirror waved                             

-|--------------------------------------------------------------------|-------
-|--------------------------------------------------------------------|-------
-|--------------------------------------------------------------------|-------
-|-7-7----x-x----7-7-7----x--x----7-7-7----x--x----7-7-7----x--