Název skladby
    
Interpret, skladatel
    
Část textu písně
    

Texty písní:
A B C D E F G H
I J K L M N O P
Q R S T U V W X
Y Z ...

Interpreti:
A B C D E F G H
I J K L M N O P
Q R S T U V W X
Y Z ...



Konflikt [-] Transpozice [+]   Tisk textu     


Prečo

Konflikt



Intro:

e-----------0---3--1-0--0--1--3-1-0-1-3-------0--------
b----1--1-3---1-------------------------3-1-3----3-----
g-0-------------------------------------------------0--
d------------------------------------------------------
a------------------------------------------------------
e------------------------------------------------------

e----------0---3--1-0--0--1--3--1-0--------------------
b---1--1-3---1----------------------3-1-1**************
g-0----------------------------------------------------
d------------------------------------------------------
a------------------------------------------------------
e------------------------------------------------------


C5       G5 E5     
Na na na na na na
F5       G5        
na na na na na na
C5       G5 E5     
Na na na na na na
F5    G5    C5     
na na na na na na

C5                 F5  
Tak prečo sa to stalo
C5                  G5   
Kto nám to raz vysvetlí
C5                 E5  
Tak prečo sa to stalo
F5            G5   C5   
Kto nás takto rozdelil

WORDS:

Tak prečo sa to stalo?
Kto nám to raz vysvetlí?
Tak prečo sa to stalo?
Kto nás takto rozdelil?
Žili sme dlhé roky
Tak sa ťa chcem opýtať
Že prečo sa to stalo?
A môžeme len spomínať

Tak prečo sa to stalo?
Komu to spať nedalo?

Komu to vadilo
Že sme žili spolu?
Koho to ťahalo
Uväzniť slobodu?
Komu to vadilo
Že táboria dva vtáky
Hore teraz chcú rozbíjať
A sú z toho radi
S nikým sa nebavili
Len nás rozdelili
Potom peniaze si vzali
A ďalšie vybili

Tak prečo sa to stalo?
Komu to spať nedalo?
Povedz mi to Vlado!

Alright!