Název skladby
    
Interpret, skladatel
    
Část textu písně
    

Texty písní:
A B C D E F G H
I J K L M N O P
Q R S T U V W X
Y Z ...

Interpreti:
A B C D E F G H
I J K L M N O P
Q R S T U V W X
Y Z ...



Horkýže Slíže [-] Transpozice [+]   Tisk textu     


Veľká Mača, Vincov Háj - taby

Horkýže Slíže




(Tabbed Andy krajčo Boston)

riff.a) rhytm (úplný začiatok)
cez sólo sa hrá len všetko po jednom (ako kilá)

Koncom minulého leta... 
E ------------------------------------/
H ------------------------------------/
G -------------------8-8--7--3--------/
D -5-5-5-5--8-8-8-8--8-8--7--3--3-3-3-/ 
A -5-5-5-5--8-8-8-8--6-6--5--1--3-3-3-/
E -3-3-3-3--6-6-6-6-------------1-1-1-/ 
 Odporúčal by som, aby ste trošku tlmili.


riff.b) solo
E -------------------|--------------------|
H ---8----6---6------|---(6)-8-6----6-----|
G ----------7---5----|------------7---5---|
D ----------------8--|------------------8-|
A -------------------|--------------------|
E -------------------|--------------------|

E -------------------|---------------------/
H -(6)-8-6----6------|6-6-6-6--6-6-6---6---/
G ----------7---5----|-7-7-7-7-------7---7~/
D ----------------8--|---------------------/
A -------------------|---------------------/
E -------------------|---------------------/


riff.c
...na starom hrdzavom...
E ----------------/
H ----------------/
G -------7---5----/
D --5----7---5----/
A --5----5---3----/
E --3-------------/


riff.d) refrén
Daj na moje slová...
E ----------------------/
H ----------------------/
G ----------8--7--------/
D --5---8---8--7---3----/
A --5---8---6--5---3----/
E --3---6----------1----/

riff.e) solo 2

E ---------------------------------------|
H ---------------------------------------|
G ---------------------------------------|
D ---------------------------------------|
A ---5-5----------------3-6--3--5-5-3----|
E 3-3---6-6-5-5-3-1-3~-6--------------6--|


E ----------------------------------------/
H ----------------------------------------/
G ----------------------------------------/
D ------------------------------------3-5~/
A -----5-5------------------3-6-3-5-5-----/
E -3-3-----6-6-5-5-3-1-3~-6---------------/

Tento riff sa len opakuje dva krát. 

v refréne je aj malé sólko na konci 
E -------------------------------------------/
H 15------15-----15--15-11-11-15-11-11-15-11-/
G --12-12---12-12--12------------------------/
D -------------------------------------------/
A -------------------------------------------/
E -------------------------------------------/
opakuje sa to zo pár krát...

riff.k(hrá sa hneď po refréne so sólom)
E -------------/
H -------------/ 
G ----5--3--7--/
D -5--5--3--7--/
A -5--3--1--5--/
E -3-----------/

riff.l
jedna gitara hrá tento riff až do konca.
Celý sa tlmí.(Je dosť na husto).
E ---------------------------------------/
H ---------------------------------------/
G -----------55555555-33333333-77777777--/
D --55555555-55555555-33333333-77777777--/
A --55555555-33333333-11111111-55555555--/
E --33333333-----------------------------/

Druhá gitara hrá v úplnom závere:
Je to presne rovnaké ako riff.l, ale hrá sa
to až pri konci. Teda musíte udrieť pravou 
rukou na jeden raz osem krát. Samozrejme,
CD Vás nepustí. 
E -11---------------------------------
H -12---------------------------------
G ----------------------------------
D ---------------------------------
A ---------------------------------
E --------------------------------------

Toto je inak skvelý song. Nie je ťažký, ale
keby ste náhodou mali nejaký problém zamailujte. 
Keby ste našli aj chybu tak mi to povedzte skôr ako
niekomu inému. Môj mail.: andykboston@euroweb.sk
Už sa teším na Vaše mailové odkazy.
                              Čaute Andy