Název skladby
    
Interpret, skladatel
    
Část textu písně
    

Texty písní:
A B C D E F G H
I J K L M N O P
Q R S T U V W X
Y Z ...

Interpreti:
A B C D E F G H
I J K L M N O P
Q R S T U V W X
Y Z ...



Horkýže Slíže [-] Transpozice [+]   Tisk textu     


Maštaľ - tabulatúra so sólom

Horkýže Slíže




     (tabbed by Andy krajčo Boston)

vysvetlivky:

INTRO: Klasický podbudzovačský rytmus
Horí ti maštal.. ....
Na kostole bijú zvony.. ....
E -----------------/
H -----------------/zahráte 3 krát
G --7-7--7-7-7-7---/a hneď nadväzuje
D --7-7--7-7-7-7---/riff.a
A --5-5--5-5-5-5---/
E -----------------/

Riff.a
Asi sa Vám to bude zdať trošku privysoko, ale 
započúval som sa do toho a hrá sa to tu.
Verte mi, viem čo robím.
E ---------------------/
H ---------------------/
G -12--11--10---9------/
D -12--11--10---9------/
A -10---9---8---7------/
E ---------------------/

Riff.b
Takýto rytmus sa hrá len prvý krát: Teda po udretí 
pravou rukou dva krát
(Horí ti maštal)
E --------------------------------------------/
H --------------------------------------------/
G ----7-7-----------------7-7-----------------/
D ----7-7--3-3--5-5--3-3--7-7--3-3--5-5--7-7--/
A ----5-5--3-3--5-5--3-3--5-5--3-3--5-5--7-7--/
E ---------1-1--3-3--1-1-------1-1--3-3--5-5--/

Riff.c
(horí, horí...)
Nezabúdajte:hrajte tlmene
E --------------------------------------/
H --------------------------------------/
G --------------------------------------/
D 888888887777-7-7--7-2-22222223333-3-5-/
A 888888887777-7-7--7-2-22222223333-3-5-/
E 666666665555-5-5--5-0-00000001111-1-3-/

neskôr hrajta riff.b opäť, ale už s iným rytmom:

RIFF.B/C - je to presne také isté ako riff.b,
len sa zmení rytmus.:
2 krát tlmene, raz normálne( ta ta tá)
Dúfam, že rozumiete. O.K.



Sólo
E ------------------------------------8--5-|
H ----6--8--6-----------6--8-6-8-6-8-------|
G --7---------7-7--5--7--------------------|
D -----------------------------------------|
A -----------------------------------------|
E -----------------------------------------|



E -----------------------------------8--5-|
H ---6--8--6-----------6--8-6-8-6-8-------|
G -7---------7-7--5--7--------------------|
D ----------------------------------------|
A ----------------------------------------|
E ----------------------------------------|

E ---------------5--------------------|
H -----6---8---6-----6-------5-6-5----|
G -7-7-------7-----7------7-----------|
D ------------------------------------|
A ------------------------------------|
E ------------------------------------|


E ---------------5--------------5--8--/
H -----6---8---6-----6------6-8-------/
G -7-7-------7-----7------7-----------/
D ------------------------------------/
A ------------------------------------/
E ------------------------------------/

Maštal...
Ak chcete o niečom pokecať, alebo nebodaj nájdete
chybu, alebo chcete nejaké iné moje taby,
zamailujte mi.: andykboston@euroweb.sk
			s pozdravom Váš ANDY